  0
SECTION
  2
HEADER
  9
$ACADVER
  1
AC1021
  9
$ACADMAINTVER
 70
     1
  9
$DWGCODEPAGE
  3
ANSI_1250
  9
$LASTSAVEDBY
  1
Lukasz
  9
$INSBASE
 10
0.0
 20
0.0
 30
0.0
  9
$EXTMIN
 10
8412514.503795911
 20
5786747.439533809
 30
0.0
  9
$EXTMAX
 10
8412555.825534063
 20
5786794.670117874
 30
0.18
  9
$LIMMIN
 10
0.0
 20
0.0
  9
$LIMMAX
 10
420.0
 20
297.0
  9
$ORTHOMODE
 70
     0
  9
$REGENMODE
 70
     1
  9
$FILLMODE
 70
     1
  9
$QTEXTMODE
 70
     0
  9
$MIRRTEXT
 70
     0
  9
$LTSCALE
 40
1.0
  9
$ATTMODE
 70
     1
  9
$TEXTSIZE
 40
2.5
  9
$TRACEWID
 40
1.0
  9
$TEXTSTYLE
  7
Standard
  9
$CLAYER
  8
0
  9
$CELTYPE
  6
ByLayer
  9
$CECOLOR
 62
   256
  9
$CELTSCALE
 40
1.0
  9
$DISPSILH
 70
     0
  9
$DIMSCALE
 40
1.0
  9
$DIMASZ
 40
2.5
  9
$DIMEXO
 40
0.625
  9
$DIMDLI
 40
3.75
  9
$DIMRND
 40
0.0
  9
$DIMDLE
 40
0.0
  9
$DIMEXE
 40
1.25
  9
$DIMTP
 40
0.0
  9
$DIMTM
 40
0.0
  9
$DIMTXT
 40
2.5
  9
$DIMCEN
 40
2.5
  9
$DIMTSZ
 40
0.0
  9
$DIMTOL
 70
     0
  9
$DIMLIM
 70
     0
  9
$DIMTIH
 70
     0
  9
$DIMTOH
 70
     0
  9
$DIMSE1
 70
     0
  9
$DIMSE2
 70
     0
  9
$DIMTAD
 70
     1
  9
$DIMZIN
 70
     8
  9
$DIMBLK
  1

  9
$DIMASO
 70
     1
  9
$DIMSHO
 70
     1
  9
$DIMPOST
  1

  9
$DIMAPOST
  1

  9
$DIMALT
 70
     0
  9
$DIMALTD
 70
     3
  9
$DIMALTF
 40
0.03937007874016
  9
$DIMLFAC
 40
1.0
  9
$DIMTOFL
 70
     1
  9
$DIMTVP
 40
0.0
  9
$DIMTIX
 70
     0
  9
$DIMSOXD
 70
     0
  9
$DIMSAH
 70
     0
  9
$DIMBLK1
  1

  9
$DIMBLK2
  1

  9
$DIMSTYLE
  2
ISO-25
  9
$DIMCLRD
 70
     0
  9
$DIMCLRE
 70
     0
  9
$DIMCLRT
 70
     0
  9
$DIMTFAC
 40
1.0
  9
$DIMGAP
 40
0.625
  9
$DIMJUST
 70
     0
  9
$DIMSD1
 70
     0
  9
$DIMSD2
 70
     0
  9
$DIMTOLJ
 70
     0
  9
$DIMTZIN
 70
     8
  9
$DIMALTZ
 70
     0
  9
$DIMALTTZ
 70
     0
  9
$DIMUPT
 70
     0
  9
$DIMDEC
 70
     2
  9
$DIMTDEC
 70
     2
  9
$DIMALTU
 70
     2
  9
$DIMALTTD
 70
     3
  9
$DIMTXSTY
  7
Standard
  9
$DIMAUNIT
 70
     0
  9
$DIMADEC
 70
     0
  9
$DIMALTRND
 40
0.0
  9
$DIMAZIN
 70
     0
  9
$DIMDSEP
 70
    44
  9
$DIMATFIT
 70
     3
  9
$DIMFRAC
 70
     0
  9
$DIMLDRBLK
  1

  9
$DIMLUNIT
 70
     2
  9
$DIMLWD
 70
    -2
  9
$DIMLWE
 70
    -2
  9
$DIMTMOVE
 70
     0
  9
$DIMFXL
 40
1.0
  9
$DIMFXLON
 70
     0
  9
$DIMJOGANG
 40
0.7853981633974483
  9
$DIMTFILL
 70
     0
  9
$DIMTFILLCLR
 70
     0
  9
$DIMARCSYM
 70
     0
  9
$DIMLTYPE
  6

  9
$DIMLTEX1
  6

  9
$DIMLTEX2
  6

  9
$LUNITS
 70
     2
  9
$LUPREC
 70
     4
  9
$SKETCHINC
 40
1.0
  9
$FILLETRAD
 40
0.0
  9
$AUNITS
 70
     0
  9
$AUPREC
 70
     0
  9
$MENU
  1
.
  9
$ELEVATION
 40
0.0
  9
$PELEVATION
 40
0.0
  9
$THICKNESS
 40
0.0
  9
$LIMCHECK
 70
     0
  9
$CHAMFERA
 40
0.0
  9
$CHAMFERB
 40
0.0
  9
$CHAMFERC
 40
0.0
  9
$CHAMFERD
 40
0.0
  9
$SKPOLY
 70
     0
  9
$TDCREATE
 40
2458366.746283345
  9
$TDUCREATE
 40
2458366.662950012
  9
$TDUPDATE
 40
2458368.488000891
  9
$TDUUPDATE
 40
2458368.404667558
  9
$TDINDWG
 40
0.0058235185
  9
$TDUSRTIMER
 40
0.0058234144
  9
$USRTIMER
 70
     1
  9
$ANGBASE
 50
0.0
  9
$ANGDIR
 70
     0
  9
$PDMODE
 70
     0
  9
$PDSIZE
 40
0.0
  9
$PLINEWID
 40
0.0
  9
$SPLFRAME
 70
     0
  9
$SPLINETYPE
 70
     6
  9
$SPLINESEGS
 70
     8
  9
$HANDSEED
  5
494
  9
$SURFTAB1
 70
     6
  9
$SURFTAB2
 70
     6
  9
$SURFTYPE
 70
     6
  9
$SURFU
 70
     6
  9
$SURFV
 70
     6
  9
$UCSBASE
  2

  9
$UCSNAME
  2

  9
$UCSORG
 10
0.0
 20
0.0
 30
0.0
  9
$UCSXDIR
 10
1.0
 20
0.0
 30
0.0
  9
$UCSYDIR
 10
0.0
 20
1.0
 30
0.0
  9
$UCSORTHOREF
  2

  9
$UCSORTHOVIEW
 70
     0
  9
$UCSORGTOP
 10
0.0
 20
0.0
 30
0.0
  9
$UCSORGBOTTOM
 10
0.0
 20
0.0
 30
0.0
  9
$UCSORGLEFT
 10
0.0
 20
0.0
 30
0.0
  9
$UCSORGRIGHT
 10
0.0
 20
0.0
 30
0.0
  9
$UCSORGFRONT
 10
0.0
 20
0.0
 30
0.0
  9
$UCSORGBACK
 10
0.0
 20
0.0
 30
0.0
  9
$PUCSBASE
  2

  9
$PUCSNAME
  2

  9
$PUCSORG
 10
0.0
 20
0.0
 30
0.0
  9
$PUCSXDIR
 10
1.0
 20
0.0
 30
0.0
  9
$PUCSYDIR
 10
0.0
 20
1.0
 30
0.0
  9
$PUCSORTHOREF
  2

  9
$PUCSORTHOVIEW
 70
     0
  9
$PUCSORGTOP
 10
0.0
 20
0.0
 30
0.0
  9
$PUCSORGBOTTOM
 10
0.0
 20
0.0
 30
0.0
  9
$PUCSORGLEFT
 10
0.0
 20
0.0
 30
0.0
  9
$PUCSORGRIGHT
 10
0.0
 20
0.0
 30
0.0
  9
$PUCSORGFRONT
 10
0.0
 20
0.0
 30
0.0
  9
$PUCSORGBACK
 10
0.0
 20
0.0
 30
0.0
  9
$USERI1
 70
     0
  9
$USERI2
 70
     0
  9
$USERI3
 70
     0
  9
$USERI4
 70
     0
  9
$USERI5
 70
     0
  9
$USERR1
 40
0.0
  9
$USERR2
 40
0.0
  9
$USERR3
 40
0.0
  9
$USERR4
 40
0.0
  9
$USERR5
 40
0.0
  9
$WORLDVIEW
 70
     1
  9
$SHADEDGE
 70
     3
  9
$SHADEDIF
 70
    70
  9
$TILEMODE
 70
     1
  9
$MAXACTVP
 70
    64
  9
$PINSBASE
 10
0.0
 20
0.0
 30
0.0
  9
$PLIMCHECK
 70
     0
  9
$PEXTMIN
 10
0.0
 20
0.0
 30
0.0
  9
$PEXTMAX
 10
0.0
 20
0.0
 30
0.0
  9
$PLIMMIN
 10
0.0
 20
0.0
  9
$PLIMMAX
 10
12.0
 20
9.0
  9
$UNITMODE
 70
     0
  9
$VISRETAIN
 70
     1
  9
$PLINEGEN
 70
     0
  9
$PSLTSCALE
 70
     1
  9
$TREEDEPTH
 70
  3020
  9
$CMLSTYLE
  2
Standard
  9
$CMLJUST
 70
     0
  9
$CMLSCALE
 40
20.0
  9
$PROXYGRAPHICS
 70
     1
  9
$MEASUREMENT
 70
     1
  9
$CELWEIGHT
370
    -1
  9
$ENDCAPS
280
     0
  9
$JOINSTYLE
280
     0
  9
$LWDISPLAY
290
     0
  9
$INSUNITS
 70
     4
  9
$HYPERLINKBASE
  1

  9
$STYLESHEET
  1

  9
$XEDIT
290
     1
  9
$CEPSNTYPE
380
     0
  9
$PSTYLEMODE
290
     1
  9
$FINGERPRINTGUID
  2
{B64C6DAC-E43C-4DD3-83C4-F2B614037227}
  9
$VERSIONGUID
  2
{2B1AED8B-3C63-44BB-8C01-9F8443F54992}
  9
$EXTNAMES
290
     1
  9
$PSVPSCALE
 40
0.0
  9
$OLESTARTUP
290
     0
  9
$SORTENTS
280
   127
  9
$INDEXCTL
280
     0
  9
$HIDETEXT
280
     1
  9
$XCLIPFRAME
290
     0
  9
$HALOGAP
280
     0
  9
$OBSCOLOR
 70
   257
  9
$OBSLTYPE
280
     0
  9
$INTERSECTIONDISPLAY
280
     0
  9
$INTERSECTIONCOLOR
 70
   257
  9
$DIMASSOC
280
     2
  9
$PROJECTNAME
  1

  9
$CAMERADISPLAY
290
     0
  9
$LENSLENGTH
 40
50.0
  9
$CAMERAHEIGHT
 40
0.0
  9
$STEPSPERSEC
 40
2.0
  9
$STEPSIZE
 40
6.0
  9
$3DDWFPREC
 40
2.0
  9
$PSOLWIDTH
 40
5.0
  9
$PSOLHEIGHT
 40
80.0
  9
$LOFTANG1
 40
1.570796326794896
  9
$LOFTANG2
 40
1.570796326794896
  9
$LOFTMAG1
 40
0.0
  9
$LOFTMAG2
 40
0.0
  9
$LOFTPARAM
 70
     7
  9
$LOFTNORMALS
280
     1
  9
$LATITUDE
 40
37.795
  9
$LONGITUDE
 40
-122.394
  9
$NORTHDIRECTION
 40
0.0
  9
$TIMEZONE
 70
 -8000
  9
$LIGHTGLYPHDISPLAY
280
     1
  9
$TILEMODELIGHTSYNCH
280
     1
  9
$CMATERIAL
347
EC
  9
$SOLIDHIST
280
     1
  9
$SHOWHIST
280
     1
  9
$DWFFRAME
280
     2
  9
$DGNFRAME
280
     0
  9
$REALWORLDSCALE
290
     1
  9
$INTERFERECOLOR
 62
     1
  9
$INTERFEREOBJVS
345
F9
  9
$INTERFEREVPVS
346
F6
  9
$CSHADOW
280
     0
  9
$SHADOWPLANELOCATION
 40
0.0
  0
ENDSEC
  0
SECTION
  2
CLASSES
  0
CLASS
  1
ACDBDICTIONARYWDFLT
  2
AcDbDictionaryWithDefault
  3
ObjectDBX Classes
 90
        0
 91
        1
280
     0
281
     0
  0
CLASS
  1
DICTIONARYVAR
  2
AcDbDictionaryVar
  3
ObjectDBX Classes
 90
        0
 91
        3
280
     0
281
     0
  0
CLASS
  1
TABLESTYLE
  2
AcDbTableStyle
  3
ObjectDBX Classes
 90
     4095
 91
        1
280
     0
281
     0
  0
CLASS
  1
MATERIAL
  2
AcDbMaterial
  3
ObjectDBX Classes
 90
     1024
 91
        3
280
     0
281
     0
  0
CLASS
  1
VISUALSTYLE
  2
AcDbVisualStyle
  3
ObjectDBX Classes
 90
     4095
 91
       16
280
     0
281
     0
  0
CLASS
  1
SORTENTSTABLE
  2
AcDbSortentsTable
  3
ObjectDBX Classes
 90
        0
 91
        0
280
     0
281
     0
  0
ENDSEC
  0
SECTION
  2
TABLES
  0
TABLE
  2
VPORT
  5
8
330
0
100
AcDbSymbolTable
 70
     1
  0
VPORT
  5
EA
330
8
100
AcDbSymbolTableRecord
100
AcDbViewportTableRecord
  2
*Active
 70
     0
 10
0.0
 20
0.0
 11
1.0
 21
1.0
 12
8412529.557403795
 22
5786765.462726248
 13
0.0
 23
0.0
 14
10.0
 24
10.0
 15
10.0
 25
10.0
 16
0.0
 26
0.0
 36
1.0
 17
0.0
 27
0.0
 37
0.0
 40
71.84894074995286
 41
1.819548872180451
 42
50.0
 43
0.0
 44
0.0
 50
0.0
 51
0.0
 71
     0
 72
  1000
 73
     1
 74
     3
 75
     0
 76
     0
 77
     0
 78
     0
281
     0
 65
     1
110
0.0
120
0.0
130
0.0
111
1.0
121
0.0
131
0.0
112
0.0
122
1.0
132
0.0
 79
     0
146
0.0
348
F5
 60
     2
 61
     5
292
     1
282
     1
141
0.0
142
0.0
 63
   250
421
  3355443
  0
ENDTAB
  0
TABLE
  2
LTYPE
  5
5
330
0
100
AcDbSymbolTable
 70
     3
  0
LTYPE
  5
14
330
5
100
AcDbSymbolTableRecord
100
AcDbLinetypeTableRecord
  2
ByBlock
 70
     0
  3

 72
    65
 73
     0
 40
0.0
  0
LTYPE
  5
15
330
5
100
AcDbSymbolTableRecord
100
AcDbLinetypeTableRecord
  2
ByLayer
 70
     0
  3

 72
    65
 73
     0
 40
0.0
  0
LTYPE
  5
16
330
5
100
AcDbSymbolTableRecord
100
AcDbLinetypeTableRecord
  2
Continuous
 70
     0
  3
Solid line
 72
    65
 73
     0
 40
0.0
  0
LTYPE
  5
113
330
5
100
AcDbSymbolTableRecord
100
AcDbLinetypeTableRecord
  2
L_0_03
 70
     0
  3
Uzytek_gruntowy
 72
    65
 73
     2
 40
0.5
 49
0.25
 74
     0
 49
-0.25
 74
     0
  0
LTYPE
  5
114
330
5
100
AcDbSymbolTableRecord
100
AcDbLinetypeTableRecord
  2
DASHDOTX2
 70
     0
  3
Dash dot (2x) ____  .  ____  .  ____  .  ___
 72
    65
 73
     4
 40
50.8
 49
25.4
 74
     0
 49
-12.7
 74
     0
 49
0.0
 74
     0
 49
-12.7
 74
     0
  0
ENDTAB
  0
TABLE
  2
LAYER
  5
2
102
{ACAD_XDICTIONARY
360
122
102
}
330
0
100
AcDbSymbolTable
 70
     6
  0
LAYER
  5
10
330
2
100
AcDbSymbolTableRecord
100
AcDbLayerTableRecord
  2
0
 70
     0
 62
     7
  6
Continuous
370
    -3
390
F
347
EE
  0
LAYER
  5
115
330
2
100
AcDbSymbolTableRecord
100
AcDbLayerTableRecord
  2
Osie_nowe
 70
     0
 62
     1
  6
Continuous
370
    18
390
F
347
EE
  0
LAYER
  5
116
330
2
100
AcDbSymbolTableRecord
100
AcDbLayerTableRecord
  2
pkt_osie
 70
     0
 62
     5
  6
Continuous
370
    18
390
F
347
EE
  0
LAYER
  5
117
102
{ACAD_XDICTIONARY
360
118
102
}
330
2
100
AcDbSymbolTableRecord
100
AcDbLayerTableRecord
  2
AO-00_Osie
 70
     0
 62
     9
  6
Continuous
370
    -3
390
F
347
EE
1001
AcAecLayerStandard
1000

1000

  0
LAYER
  5
11A
102
{ACAD_XDICTIONARY
360
11B
102
}
330
2
100
AcDbSymbolTableRecord
100
AcDbLayerTableRecord
  2
PZ-PF_stopa_fund
 70
     0
 62
   134
  6
Continuous
370
    -3
390
F
347
EE
  0
LAYER
  5
11D
330
2
100
AcDbSymbolTableRecord
100
AcDbLayerTableRecord
  2
PZ-PF_stopa_lawa
 70
     0
 62
   134
  6
Continuous
370
    -3
390
F
347
EE
1001
AcAecLayerStandard
1000

1000

  0
ENDTAB
  0
TABLE
  2
STYLE
  5
3
330
0
100
AcDbSymbolTable
 70
     1
  0
STYLE
  5
11
330
3
100
AcDbSymbolTableRecord
100
AcDbTextStyleTableRecord
  2
Standard
 70
     0
 40
0.0
 41
1.0
 50
0.0
 71
     0
 42
2.5
  3
txt
  4

  0
ENDTAB
  0
TABLE
  2
VIEW
  5
6
330
0
100
AcDbSymbolTable
 70
     0
  0
ENDTAB
  0
TABLE
  2
UCS
  5
7
330
0
100
AcDbSymbolTable
 70
     0
  0
ENDTAB
  0
TABLE
  2
APPID
  5
9
330
0
100
AcDbSymbolTable
 70
     5
  0
APPID
  5
12
330
9
100
AcDbSymbolTableRecord
100
AcDbRegAppTableRecord
  2
ACAD
 70
     0
  0
APPID
  5
9E
330
9
100
AcDbSymbolTableRecord
100
AcDbRegAppTableRecord
  2
ACAD_PSEXT
 70
     0
  0
APPID
  5
11F
330
9
100
AcDbSymbolTableRecord
100
AcDbRegAppTableRecord
  2
ACAD_NAV_VCDISPLAY
 70
     0
  0
APPID
  5
120
330
9
100
AcDbSymbolTableRecord
100
AcDbRegAppTableRecord
  2
ADE
 70
     0
  0
APPID
  5
121
330
9
100
AcDbSymbolTableRecord
100
AcDbRegAppTableRecord
  2
AcAecLayerStandard
 70
     0
  0
ENDTAB
  0
TABLE
  2
DIMSTYLE
  5
A
330
0
100
AcDbSymbolTable
 70
     2
100
AcDbDimStyleTable
 71
     1
340
27
  0
DIMSTYLE
105
27
330
A
100
AcDbSymbolTableRecord
100
AcDbDimStyleTableRecord
  2
ISO-25
 70
     0
 41
2.5
 42
0.625
 43
3.75
 44
1.25
 73
     0
 74
     0
 77
     1
 78
     8
140
2.5
141
2.5
143
0.03937007874016
147
0.625
171
     3
172
     1
271
     2
272
     2
274
     3
278
    44
283
     0
284
     8
340
11
  0
DIMSTYLE
105
11E
330
A
100
AcDbSymbolTableRecord
100
AcDbDimStyleTableRecord
  2
Standard
 70
     0
340
11
  0
ENDTAB
  0
TABLE
  2
BLOCK_RECORD
  5
1
330
0
100
AcDbSymbolTable
 70
     2
  0
BLOCK_RECORD
  5
1F
330
1
100
AcDbSymbolTableRecord
100
AcDbBlockTableRecord
  2
*Model_Space
340
22
 70
     0
280
     1
281
     0
  0
BLOCK_RECORD
  5
D2
330
1
100
AcDbSymbolTableRecord
100
AcDbBlockTableRecord
  2
*Paper_Space
340
D3
 70
     0
280
     1
281
     0
  0
BLOCK_RECORD
  5
D6
330
1
100
AcDbSymbolTableRecord
100
AcDbBlockTableRecord
  2
*Paper_Space0
340
D7
 70
     0
280
     1
281
     0
  0
BLOCK_RECORD
  5
10F
330
1
100
AcDbSymbolTableRecord
100
AcDbBlockTableRecord
  2
pikieta
340
0
102
{BLKREFS
331
33E
331
341
331
344
331
347
331
34A
331
34D
331
350
331
353
331
356
331
359
331
35C
331
35F
331
362
331
365
331
368
331
36B
331
36E
331
371
331
374
331
377
331
37A
331
37D
102
}
 70
     0
280
     1
281
     0
  0
ENDTAB
  0
ENDSEC
  0
SECTION
  2
BLOCKS
  0
BLOCK
  5
20
330
1F
100
AcDbEntity
  8
0
100
AcDbBlockBegin
  2
*Model_Space
 70
     0
 10
0.0
 20
0.0
 30
0.0
  3
*Model_Space
  1

  0
ENDBLK
  5
21
330
1F
100
AcDbEntity
  8
0
100
AcDbBlockEnd
  0
BLOCK
  5
D4
330
D2
100
AcDbEntity
 67
     1
  8
0
100
AcDbBlockBegin
  2
*Paper_Space
 70
     0
 10
0.0
 20
0.0
 30
0.0
  3
*Paper_Space
  1

  0
ENDBLK
  5
D5
330
D2
100
AcDbEntity
 67
     1
  8
0
100
AcDbBlockEnd
  0
BLOCK
  5
D8
330
D6
100
AcDbEntity
 67
     1
  8
0
100
AcDbBlockBegin
  2
*Paper_Space0
 70
     0
 10
0.0
 20
0.0
 30
0.0
  3
*Paper_Space0
  1

  0
ENDBLK
  5
D9
330
D6
100
AcDbEntity
 67
     1
  8
0
100
AcDbBlockEnd
  0
BLOCK
  5
110
330
10F
100
AcDbEntity
  8
0
100
AcDbBlockBegin
  2
pikieta
 70
     0
 10
0.0
 20
0.0
 30
0.0
  3
pikieta
  1
pikieta
  0
POINT
  5
111
330
10F
100
AcDbEntity
  8
0
 62
     0
100
AcDbPoint
 10
0.0
 20
0.0
 30
0.0
  0
ENDBLK
  5
112
330
10F
100
AcDbEntity
  8
0
100
AcDbBlockEnd
  0
ENDSEC
  0
SECTION
  2
ENTITIES
  0
POLYLINE
  5
2D7
330
1F
100
AcDbEntity
  8
Osie_nowe
  6
Continuous
370
    18
100
AcDb2dPolyline
 66
     1
 10
0.0
 20
0.0
 30
0.0
 70
   128
  0
VERTEX
  5
2D8
330
2D7
100
AcDbEntity
  8
Osie_nowe
100
AcDbVertex
100
AcDb2dVertex
 10
8412551.705713676
 20
5786781.861465938
 30
0.0
  0
VERTEX
  5
2D9
330
2D7
100
AcDbEntity
  8
Osie_nowe
100
AcDbVertex
100
AcDb2dVertex
 10
8412553.009565476
 20
5786781.765821133
 30
0.0
  0
VERTEX
  5
2DA
330
2D7
100
AcDbEntity
  8
Osie_nowe
100
AcDbVertex
100
AcDb2dVertex
 10
8412554.25009794
 20
5786782.177847068
 30
0.0
  0
VERTEX
  5
2DB
330
2D7
100
AcDbEntity
  8
Osie_nowe
100
AcDbVertex
100
AcDb2dVertex
 10
8412555.238517224
 20
5786783.032772864
 30
0.0
  0
VERTEX
  5
2DC
330
2D7
100
AcDbEntity
  8
Osie_nowe
100
AcDbVertex
100
AcDb2dVertex
 10
8412555.825534063
 20
5786784.200713674
 30
0.0
  0
SEQEND
  5
2DD
330
2D7
100
AcDbEntity
  8
Osie_nowe
  0
POLYLINE
  5
2DE
330
1F
100
AcDbEntity
  8
Osie_nowe
  6
Continuous
370
    18
100
AcDb2dPolyline
 66
     1
 10
0.0
 20
0.0
 30
0.0
 70
   128
  0
VERTEX
  5
2DF
330
2DE
100
AcDbEntity
  8
Osie_nowe
100
AcDbVertex
100
AcDb2dVertex
 10
8412552.244626922
 20
5786784.850687552
 30
0.0
  0
VERTEX
  5
2E0
330
2DE
100
AcDbEntity
  8
Osie_nowe
100
AcDbVertex
100
AcDb2dVertex
 10
8412550.384390108
 20
5786778.102805361
 30
0.0
  0
VERTEX
  5
2E1
330
2DE
100
AcDbEntity
  8
Osie_nowe
100
AcDbVertex
100
AcDb2dVertex
 10
8412548.656928548
 20
5786771.836556357
 30
0.0
  0
VERTEX
  5
2E2
330
2DE
100
AcDbEntity
  8
Osie_nowe
100
AcDbVertex
100
AcDb2dVertex
 10
8412546.929466991
 20
5786765.570307356
 30
0.0
  0
VERTEX
  5
2E3
330
2DE
100
AcDbEntity
  8
Osie_nowe
100
AcDbVertex
100
AcDb2dVertex
 10
8412544.936242115
 20
5786758.340020045
 30
0.0
  0
VERTEX
  5
2E4
330
2DE
100
AcDbEntity
  8
Osie_nowe
100
AcDbVertex
100
AcDb2dVertex
 10
8412542.943017239
 20
5786751.109732732
 30
0.0
  0
SEQEND
  5
2E5
330
2DE
100
AcDbEntity
  8
Osie_nowe
  0
POLYLINE
  5
2E6
330
1F
100
AcDbEntity
  8
Osie_nowe
  6
Continuous
370
    18
100
AcDb2dPolyline
 66
     1
 10
0.0
 20
0.0
 30
0.0
 70
   128
  0
VERTEX
  5
2E7
330
2E6
100
AcDbEntity
  8
Osie_nowe
100
AcDbVertex
100
AcDb2dVertex
 10
8412550.402923383
 20
5786785.695526632
 30
0.0
  0
VERTEX
  5
2E8
330
2E6
100
AcDbEntity
  8
Osie_nowe
100
AcDbVertex
100
AcDb2dVertex
 10
8412541.014945965
 20
5786751.641278742
 30
0.0
  0
SEQEND
  5
2E9
330
2E6
100
AcDbEntity
  8
Osie_nowe
  0
POLYLINE
  5
2EA
330
1F
100
AcDbEntity
  8
Osie_nowe
  6
Continuous
370
    18
100
AcDb2dPolyline
 66
     1
 10
0.0
 20
0.0
 30
0.0
 70
   128
  0
VERTEX
  5
2EB
330
2EA
100
AcDbEntity
  8
Osie_nowe
100
AcDbVertex
100
AcDb2dVertex
 10
8412545.100712689
 20
5786787.157224875
 30
0.0
  0
VERTEX
  5
2EC
330
2EA
100
AcDbEntity
  8
Osie_nowe
100
AcDbVertex
100
AcDb2dVertex
 10
8412535.712749962
 20
5786753.103030281
 30
0.0
  0
SEQEND
  5
2ED
330
2EA
100
AcDbEntity
  8
Osie_nowe
  0
POLYLINE
  5
2EE
330
1F
100
AcDbEntity
  8
Osie_nowe
  6
Continuous
370
    18
100
AcDb2dPolyline
 66
     1
 10
0.0
 20
0.0
 30
0.0
 70
   128
  0
VERTEX
  5
2EF
330
2EE
100
AcDbEntity
  8
Osie_nowe
100
AcDbVertex
100
AcDb2dVertex
 10
8412540.955347965
 20
5786788.300007137
 30
0.0
  0
VERTEX
  5
2F0
330
2EE
100
AcDbEntity
  8
Osie_nowe
100
AcDbVertex
100
AcDb2dVertex
 10
8412531.567396722
 20
5786754.245854206
 30
0.0
  0
SEQEND
  5
2F1
330
2EE
100
AcDbEntity
  8
Osie_nowe
  0
POLYLINE
  5
2F2
330
1F
100
AcDbEntity
  8
Osie_nowe
  6
Continuous
370
    18
100
AcDb2dPolyline
 66
     1
 10
0.0
 20
0.0
 30
0.0
 70
   128
  0
VERTEX
  5
2F3
330
2F2
100
AcDbEntity
  8
Osie_nowe
100
AcDbVertex
100
AcDb2dVertex
 10
8412537.87042538
 20
5786789.150449751
 30
0.0
  0
VERTEX
  5
2F4
330
2F2
100
AcDbEntity
  8
Osie_nowe
100
AcDbVertex
100
AcDb2dVertex
 10
8412528.482482686
 20
5786755.096327831
 30
0.0
  0
SEQEND
  5
2F5
330
2F2
100
AcDbEntity
  8
Osie_nowe
  0
POLYLINE
  5
2F6
330
1F
100
AcDbEntity
  8
Osie_nowe
  6
Continuous
370
    18
100
AcDb2dPolyline
 66
     1
 10
0.0
 20
0.0
 30
0.0
 70
   128
  0
VERTEX
  5
2F7
330
2F6
100
AcDbEntity
  8
Osie_nowe
100
AcDbVertex
100
AcDb2dVertex
 10
8412531.035842912
 20
5786790.697693687
 30
0.0
  0
VERTEX
  5
2F8
330
2F6
100
AcDbEntity
  8
Osie_nowe
100
AcDbVertex
100
AcDb2dVertex
 10
8412521.734233227
 20
5786756.956738871
 30
0.0
  0
SEQEND
  5
2F9
330
2F6
100
AcDbEntity
  8
Osie_nowe
  0
POLYLINE
  5
2FA
330
1F
100
AcDbEntity
  8
Osie_nowe
  6
Continuous
370
    18
100
AcDb2dPolyline
 66
     1
 10
0.0
 20
0.0
 30
0.0
 70
   128
  0
VERTEX
  5
2FB
330
2FA
100
AcDbEntity
  8
Osie_nowe
100
AcDbVertex
100
AcDb2dVertex
 10
8412526.697626923
 20
5786791.89368755
 30
0.0
  0
VERTEX
  5
2FC
330
2FA
100
AcDbEntity
  8
Osie_nowe
100
AcDbVertex
100
AcDb2dVertex
 10
8412524.837390108
 20
5786785.145805363
 30
0.0
  0
VERTEX
  5
2FD
330
2FA
100
AcDbEntity
  8
Osie_nowe
100
AcDbVertex
100
AcDb2dVertex
 10
8412523.109928548
 20
5786778.87955636
 30
0.0
  0
VERTEX
  5
2FE
330
2FA
100
AcDbEntity
  8
Osie_nowe
100
AcDbVertex
100
AcDb2dVertex
 10
8412521.382466991
 20
5786772.613307358
 30
0.0
  0
VERTEX
  5
2FF
330
2FA
100
AcDbEntity
  8
Osie_nowe
100
AcDbVertex
100
AcDb2dVertex
 10
8412519.389242115
 20
5786765.383020045
 30
0.0
  0
VERTEX
  5
300
330
2FA
100
AcDbEntity
  8
Osie_nowe
100
AcDbVertex
100
AcDb2dVertex
 10
8412517.396017236
 20
5786758.152732734
 30
0.0
  0
SEQEND
  5
301
330
2FA
100
AcDbEntity
  8
Osie_nowe
  0
POLYLINE
  5
302
330
1F
100
AcDbEntity
  8
Osie_nowe
  6
Continuous
370
    18
100
AcDb2dPolyline
 66
     1
 10
0.0
 20
0.0
 30
0.0
 70
   128
  0
VERTEX
  5
303
330
302
100
AcDbEntity
  8
Osie_nowe
100
AcDbVertex
100
AcDb2dVertex
 10
8412552.244626922
 20
5786784.850687552
 30
0.0
  0
VERTEX
  5
304
330
302
100
AcDbEntity
  8
Osie_nowe
100
AcDbVertex
100
AcDb2dVertex
 10
8412550.316555647
 20
5786785.382233563
 30
0.0
  0
VERTEX
  5
305
330
302
100
AcDbEntity
  8
Osie_nowe
100
AcDbVertex
100
AcDb2dVertex
 10
8412545.014359642
 20
5786786.843985097
 30
0.0
  0
VERTEX
  5
306
330
302
100
AcDbEntity
  8
Osie_nowe
100
AcDbVertex
100
AcDb2dVertex
 10
8412540.869006409
 20
5786787.986809024
 30
0.0
  0
VERTEX
  5
307
330
302
100
AcDbEntity
  8
Osie_nowe
100
AcDbVertex
100
AcDb2dVertex
 10
8412537.78409237
 20
5786788.837282642
 30
0.0
  0
VERTEX
  5
308
330
302
100
AcDbEntity
  8
Osie_nowe
100
AcDbVertex
100
AcDb2dVertex
 10
8412531.035842912
 20
5786790.697693687
 30
0.0
  0
VERTEX
  5
309
330
302
100
AcDbEntity
  8
Osie_nowe
100
AcDbVertex
100
AcDb2dVertex
 10
8412526.697626923
 20
5786791.89368755
 30
0.0
  0
SEQEND
  5
30A
330
302
100
AcDbEntity
  8
Osie_nowe
  0
POLYLINE
  5
30B
330
1F
100
AcDbEntity
  8
Osie_nowe
  6
Continuous
370
    18
100
AcDb2dPolyline
 66
     1
 10
0.0
 20
0.0
 30
0.0
 70
   128
  0
VERTEX
  5
30C
330
30B
100
AcDbEntity
  8
Osie_nowe
100
AcDbVertex
100
AcDb2dVertex
 10
8412550.384390108
 20
5786778.102805361
 30
0.0
  0
VERTEX
  5
30D
330
30B
100
AcDbEntity
  8
Osie_nowe
100
AcDbVertex
100
AcDb2dVertex
 10
8412524.837390108
 20
5786785.145805363
 30
0.0
  0
SEQEND
  5
30E
330
30B
100
AcDbEntity
  8
Osie_nowe
  0
POLYLINE
  5
30F
330
1F
100
AcDbEntity
  8
Osie_nowe
  6
Continuous
370
    18
100
AcDb2dPolyline
 66
     1
 10
0.0
 20
0.0
 30
0.0
 70
   128
  0
VERTEX
  5
310
330
30F
100
AcDbEntity
  8
Osie_nowe
100
AcDbVertex
100
AcDb2dVertex
 10
8412548.656928548
 20
5786771.836556357
 30
0.0
  0
VERTEX
  5
311
330
30F
100
AcDbEntity
  8
Osie_nowe
100
AcDbVertex
100
AcDb2dVertex
 10
8412523.109928548
 20
5786778.87955636
 30
0.0
  0
SEQEND
  5
312
330
30F
100
AcDbEntity
  8
Osie_nowe
  0
POLYLINE
  5
313
330
1F
100
AcDbEntity
  8
Osie_nowe
  6
Continuous
370
    18
100
AcDb2dPolyline
 66
     1
 10
0.0
 20
0.0
 30
0.0
 70
   128
  0
VERTEX
  5
314
330
313
100
AcDbEntity
  8
Osie_nowe
100
AcDbVertex
100
AcDb2dVertex
 10
8412546.929466991
 20
5786765.570307356
 30
0.0
  0
VERTEX
  5
315
330
313
100
AcDbEntity
  8
Osie_nowe
100
AcDbVertex
100
AcDb2dVertex
 10
8412521.382466991
 20
5786772.613307358
 30
0.0
  0
SEQEND
  5
316
330
313
100
AcDbEntity
  8
Osie_nowe
  0
POLYLINE
  5
317
330
1F
100
AcDbEntity
  8
Osie_nowe
  6
Continuous
370
    18
100
AcDb2dPolyline
 66
     1
 10
0.0
 20
0.0
 30
0.0
 70
   128
  0
VERTEX
  5
318
330
317
100
AcDbEntity
  8
Osie_nowe
100
AcDbVertex
100
AcDb2dVertex
 10
8412544.936242115
 20
5786758.340020045
 30
0.0
  0
VERTEX
  5
319
330
317
100
AcDbEntity
  8
Osie_nowe
100
AcDbVertex
100
AcDb2dVertex
 10
8412519.389242115
 20
5786765.383020045
 30
0.0
  0
SEQEND
  5
31A
330
317
100
AcDbEntity
  8
Osie_nowe
  0
POLYLINE
  5
31B
330
1F
100
AcDbEntity
  8
Osie_nowe
  6
Continuous
370
    18
100
AcDb2dPolyline
 66
     1
 10
0.0
 20
0.0
 30
0.0
 70
   128
  0
VERTEX
  5
31C
330
31B
100
AcDbEntity
  8
Osie_nowe
100
AcDbVertex
100
AcDb2dVertex
 10
8412542.94294478
 20
5786751.10975271
 30
0.0
  0
VERTEX
  5
31D
330
31B
100
AcDbEntity
  8
Osie_nowe
100
AcDbVertex
100
AcDb2dVertex
 10
8412541.014945965
 20
5786751.641278742
 30
0.0
  0
VERTEX
  5
31E
330
31B
100
AcDbEntity
  8
Osie_nowe
100
AcDbVertex
100
AcDb2dVertex
 10
8412535.712749962
 20
5786753.103030281
 30
0.0
  0
VERTEX
  5
31F
330
31B
100
AcDbEntity
  8
Osie_nowe
100
AcDbVertex
100
AcDb2dVertex
 10
8412531.567396722
 20
5786754.245854206
 30
0.0
  0
VERTEX
  5
320
330
31B
100
AcDbEntity
  8
Osie_nowe
100
AcDbVertex
100
AcDb2dVertex
 10
8412528.482482686
 20
5786755.096327831
 30
0.0
  0
VERTEX
  5
321
330
31B
100
AcDbEntity
  8
Osie_nowe
100
AcDbVertex
100
AcDb2dVertex
 10
8412521.734233227
 20
5786756.956738871
 30
0.0
  0
VERTEX
  5
322
330
31B
100
AcDbEntity
  8
Osie_nowe
100
AcDbVertex
100
AcDb2dVertex
 10
8412517.395944782
 20
5786758.152752711
 30
0.0
  0
SEQEND
  5
323
330
31B
100
AcDbEntity
  8
Osie_nowe
  0
POLYLINE
  5
324
330
1F
100
AcDbEntity
  8
Osie_nowe
  6
L_0_03
370
    13
100
AcDb2dPolyline
 66
     1
 10
0.0
 20
0.0
 30
0.0
 70
   128
  0
VERTEX
  5
325
330
324
100
AcDbEntity
  8
Osie_nowe
100
AcDbVertex
100
AcDb2dVertex
 10
8412552.596000001
 20
5786785.091
 30
0.0
  0
VERTEX
  5
326
330
324
100
AcDbEntity
  8
Osie_nowe
100
AcDbVertex
100
AcDb2dVertex
 10
8412552.596000001
 20
5786785.091
 30
0.0
  0
SEQEND
  5
327
330
324
100
AcDbEntity
  8
Osie_nowe
  0
POLYLINE
  5
328
330
1F
100
AcDbEntity
  8
Osie_nowe
  6
L_0_03
370
    13
100
AcDb2dPolyline
 66
     1
 10
0.0
 20
0.0
 30
0.0
 70
   128
  0
VERTEX
  5
329
330
328
100
AcDbEntity
  8
Osie_nowe
100
AcDbVertex
100
AcDb2dVertex
 10
8412552.244626922
 20
5786784.850687552
 30
0.0
  0
VERTEX
  5
32A
330
328
100
AcDbEntity
  8
Osie_nowe
100
AcDbVertex
100
AcDb2dVertex
 10
8412552.509615462
 20
5786784.777638104
 30
0.0
  0
SEQEND
  5
32B
330
328
100
AcDbEntity
  8
Osie_nowe
  0
POLYLINE
  5
32C
330
1F
100
AcDbEntity
  8
Osie_nowe
  6
L_0_03
370
    13
100
AcDb2dPolyline
 66
     1
 10
0.0
 20
0.0
 30
0.0
 70
   128
  0
VERTEX
  5
32D
330
32C
100
AcDbEntity
  8
Osie_nowe
100
AcDbVertex
100
AcDb2dVertex
 10
8412552.244626922
 20
5786784.850687552
 30
0.0
  0
VERTEX
  5
32E
330
32C
100
AcDbEntity
  8
Osie_nowe
100
AcDbVertex
100
AcDb2dVertex
 10
8412552.509615462
 20
5786784.777638104
 30
0.0
  0
SEQEND
  5
32F
330
32C
100
AcDbEntity
  8
Osie_nowe
  0
POLYLINE
  5
330
330
1F
100
AcDbEntity
  8
Osie_nowe
  6
L_0_03
370
    13
100
AcDb2dPolyline
 66
     1
 10
0.0
 20
0.0
 30
0.0
 70
   128
  0
VERTEX
  5
331
330
330
100
AcDbEntity
  8
Osie_nowe
100
AcDbVertex
100
AcDb2dVertex
 10
8412542.943017239
 20
5786751.109732732
 30
0.0
  0
VERTEX
  5
332
330
330
100
AcDbEntity
  8
Osie_nowe
100
AcDbVertex
100
AcDb2dVertex
 10
8412543.208222945
 20
5786751.036623416
 30
0.0
  0
SEQEND
  5
333
330
330
100
AcDbEntity
  8
Osie_nowe
  0
POLYLINE
  5
334
330
1F
100
AcDbEntity
  8
Osie_nowe
  6
Continuous
370
    13
100
AcDb2dPolyline
 66
     1
 10
0.0
 20
0.0
 30
0.0
 70
   128
  0
VERTEX
  5
335
330
334
100
AcDbEntity
  8
Osie_nowe
100
AcDbVertex
100
AcDb2dVertex
 10
8412550.795043111
 20
5786784.403799363
 30
0.0
  0
VERTEX
  5
336
330
334
100
AcDbEntity
  8
Osie_nowe
100
AcDbVertex
100
AcDb2dVertex
 10
8412551.838137199
 20
5786784.084893497
 30
0.0
  0
VERTEX
  5
337
330
334
100
AcDbEntity
  8
Osie_nowe
100
AcDbVertex
100
AcDb2dVertex
 10
8412552.372051781
 20
5786784.815560313
 30
0.0
  0
SEQEND
  5
338
330
334
100
AcDbEntity
  8
Osie_nowe
  0
POLYLINE
  5
339
330
1F
100
AcDbEntity
  8
Osie_nowe
  6
Continuous
370
    13
100
AcDb2dPolyline
 66
     1
 10
0.0
 20
0.0
 30
0.0
 70
   128
  0
VERTEX
  5
33A
330
339
100
AcDbEntity
  8
Osie_nowe
100
AcDbVertex
100
AcDb2dVertex
 10
8412541.161152914
 20
5786750.577777016
 30
0.0
  0
VERTEX
  5
33B
330
339
100
AcDbEntity
  8
Osie_nowe
100
AcDbVertex
100
AcDb2dVertex
 10
8412542.204653624
 20
5786750.262725578
 30
0.0
  0
VERTEX
  5
33C
330
339
100
AcDbEntity
  8
Osie_nowe
100
AcDbVertex
100
AcDb2dVertex
 10
8412543.063397757
 20
5786751.076547408
 30
0.0
  0
SEQEND
  5
33D
330
339
100
AcDbEntity
  8
Osie_nowe
  0
INSERT
  5
33E
330
1F
100
AcDbEntity
  8
pkt_osie
  6
Continuous
 62
   160
100
AcDbBlockReference
 66
     1
  2
pikieta
 10
8412552.244626922
 20
5786784.850687552
 30
0.0
 41
0.25
 42
0.25
 43
0.25
  0
ATTRIB
  5
33F
330
33E
100
AcDbEntity
  8
pkt_osie
100
AcDbText
 10
8412552.244626922
 20
5786784.850687552
 30
0.0
 40
0.2
  1
A1
 41
0.6200000000000001
100
AcDbAttribute
  2
Nr
 70
     0
280
     0
  0
SEQEND
  5
340
330
33E
100
AcDbEntity
  8
pkt_osie
  0
INSERT
  5
341
330
1F
100
AcDbEntity
  8
pkt_osie
  6
Continuous
 62
   160
100
AcDbBlockReference
 66
     1
  2
pikieta
 10
8412550.316555647
 20
5786785.382233563
 30
0.0
 41
0.25
 42
0.25
 43
0.25
  0
ATTRIB
  5
342
330
341
100
AcDbEntity
  8
pkt_osie
100
AcDbText
 10
8412550.316555647
 20
5786785.382233563
 30
0.0
 40
0.2
  1
A'1
 41
0.6200000000000001
100
AcDbAttribute
  2
Nr
 70
     0
280
     0
  0
SEQEND
  5
343
330
341
100
AcDbEntity
  8
pkt_osie
  0
INSERT
  5
344
330
1F
100
AcDbEntity
  8
pkt_osie
  6
Continuous
 62
   160
100
AcDbBlockReference
 66
     1
  2
pikieta
 10
8412545.014359642
 20
5786786.843985097
 30
0.0
 41
0.25
 42
0.25
 43
0.25
  0
ATTRIB
  5
345
330
344
100
AcDbEntity
  8
pkt_osie
100
AcDbText
 10
8412545.014359642
 20
5786786.843985097
 30
0.0
 40
0.2
  1
B1
 41
0.6200000000000001
100
AcDbAttribute
  2
Nr
 70
     0
280
     0
  0
SEQEND
  5
346
330
344
100
AcDbEntity
  8
pkt_osie
  0
INSERT
  5
347
330
1F
100
AcDbEntity
  8
pkt_osie
  6
Continuous
 62
   160
100
AcDbBlockReference
 66
     1
  2
pikieta
 10
8412540.869006409
 20
5786787.986809024
 30
0.0
 41
0.25
 42
0.25
 43
0.25
  0
ATTRIB
  5
348
330
347
100
AcDbEntity
  8
pkt_osie
100
AcDbText
 10
8412540.869006409
 20
5786787.986809024
 30
0.0
 40
0.2
  1
C1
 41
0.6200000000000001
100
AcDbAttribute
  2
Nr
 70
     0
280
     0
  0
SEQEND
  5
349
330
347
100
AcDbEntity
  8
pkt_osie
  0
INSERT
  5
34A
330
1F
100
AcDbEntity
  8
pkt_osie
  6
Continuous
 62
   160
100
AcDbBlockReference
 66
     1
  2
pikieta
 10
8412537.78409237
 20
5786788.837282642
 30
0.0
 41
0.25
 42
0.25
 43
0.25
  0
ATTRIB
  5
34B
330
34A
100
AcDbEntity
  8
pkt_osie
100
AcDbText
 10
8412537.78409237
 20
5786788.837282642
 30
0.0
 40
0.2
  1
D1
 41
0.6200000000000001
100
AcDbAttribute
  2
Nr
 70
     0
280
     0
  0
SEQEND
  5
34C
330
34A
100
AcDbEntity
  8
pkt_osie
  0
INSERT
  5
34D
330
1F
100
AcDbEntity
  8
pkt_osie
  6
Continuous
 62
   160
100
AcDbBlockReference
 66
     1
  2
pikieta
 10
8412531.035842912
 20
5786790.697693687
 30
0.0
 41
0.25
 42
0.25
 43
0.25
  0
ATTRIB
  5
34E
330
34D
100
AcDbEntity
  8
pkt_osie
100
AcDbText
 10
8412531.035842912
 20
5786790.697693687
 30
0.0
 40
0.2
  1
E1
 41
0.6200000000000001
100
AcDbAttribute
  2
Nr
 70
     0
280
     0
  0
SEQEND
  5
34F
330
34D
100
AcDbEntity
  8
pkt_osie
  0
INSERT
  5
350
330
1F
100
AcDbEntity
  8
pkt_osie
  6
Continuous
 62
   160
100
AcDbBlockReference
 66
     1
  2
pikieta
 10
8412526.697626923
 20
5786791.89368755
 30
0.0
 41
0.25
 42
0.25
 43
0.25
  0
ATTRIB
  5
351
330
350
100
AcDbEntity
  8
pkt_osie
100
AcDbText
 10
8412526.697626923
 20
5786791.89368755
 30
0.0
 40
0.2
  1
F1
 41
0.6200000000000001
100
AcDbAttribute
  2
Nr
 70
     0
280
     0
  0
SEQEND
  5
352
330
350
100
AcDbEntity
  8
pkt_osie
  0
INSERT
  5
353
330
1F
100
AcDbEntity
  8
pkt_osie
  6
Continuous
 62
   160
100
AcDbBlockReference
 66
     1
  2
pikieta
 10
8412524.837390108
 20
5786785.145805363
 30
0.0
 41
0.25
 42
0.25
 43
0.25
  0
ATTRIB
  5
354
330
353
100
AcDbEntity
  8
pkt_osie
100
AcDbText
 10
8412524.837390108
 20
5786785.145805363
 30
0.0
 40
0.2
  1
F2
 41
0.6200000000000001
100
AcDbAttribute
  2
Nr
 70
     0
280
     0
  0
SEQEND
  5
355
330
353
100
AcDbEntity
  8
pkt_osie
  0
INSERT
  5
356
330
1F
100
AcDbEntity
  8
pkt_osie
  6
Continuous
 62
   160
100
AcDbBlockReference
 66
     1
  2
pikieta
 10
8412523.109928548
 20
5786778.87955636
 30
0.0
 41
0.25
 42
0.25
 43
0.25
  0
ATTRIB
  5
357
330
356
100
AcDbEntity
  8
pkt_osie
100
AcDbText
 10
8412523.109928548
 20
5786778.87955636
 30
0.0
 40
0.2
  1
F3
 41
0.6200000000000001
100
AcDbAttribute
  2
Nr
 70
     0
280
     0
  0
SEQEND
  5
358
330
356
100
AcDbEntity
  8
pkt_osie
  0
INSERT
  5
359
330
1F
100
AcDbEntity
  8
pkt_osie
  6
Continuous
 62
   160
100
AcDbBlockReference
 66
     1
  2
pikieta
 10
8412521.382466991
 20
5786772.613307358
 30
0.0
 41
0.25
 42
0.25
 43
0.25
  0
ATTRIB
  5
35A
330
359
100
AcDbEntity
  8
pkt_osie
100
AcDbText
 10
8412521.382466991
 20
5786772.613307358
 30
0.0
 40
0.2
  1
F4
 41
0.6200000000000001
100
AcDbAttribute
  2
Nr
 70
     0
280
     0
  0
SEQEND
  5
35B
330
359
100
AcDbEntity
  8
pkt_osie
  0
INSERT
  5
35C
330
1F
100
AcDbEntity
  8
pkt_osie
  6
Continuous
 62
   160
100
AcDbBlockReference
 66
     1
  2
pikieta
 10
8412519.389242115
 20
5786765.383020045
 30
0.0
 41
0.25
 42
0.25
 43
0.25
  0
ATTRIB
  5
35D
330
35C
100
AcDbEntity
  8
pkt_osie
100
AcDbText
 10
8412519.389242115
 20
5786765.383020045
 30
0.0
 40
0.2
  1
F5
 41
0.6200000000000001
100
AcDbAttribute
  2
Nr
 70
     0
280
     0
  0
SEQEND
  5
35E
330
35C
100
AcDbEntity
  8
pkt_osie
  0
INSERT
  5
35F
330
1F
100
AcDbEntity
  8
pkt_osie
  6
Continuous
 62
   160
100
AcDbBlockReference
 66
     1
  2
pikieta
 10
8412517.396017236
 20
5786758.152732734
 30
0.0
 41
0.25
 42
0.25
 43
0.25
  0
ATTRIB
  5
360
330
35F
100
AcDbEntity
  8
pkt_osie
100
AcDbText
 10
8412517.396017236
 20
5786758.152732734
 30
0.0
 40
0.2
  1
F6
 41
0.6200000000000001
100
AcDbAttribute
  2
Nr
 70
     0
280
     0
  0
SEQEND
  5
361
330
35F
100
AcDbEntity
  8
pkt_osie
  0
INSERT
  5
362
330
1F
100
AcDbEntity
  8
pkt_osie
  6
Continuous
 62
   160
100
AcDbBlockReference
 66
     1
  2
pikieta
 10
8412521.734233227
 20
5786756.956738871
 30
0.0
 41
0.25
 42
0.25
 43
0.25
  0
ATTRIB
  5
363
330
362
100
AcDbEntity
  8
pkt_osie
100
AcDbText
 10
8412521.734233227
 20
5786756.956738871
 30
0.0
 40
0.2
  1
E6
 41
0.6200000000000001
100
AcDbAttribute
  2
Nr
 70
     0
280
     0
  0
SEQEND
  5
364
330
362
100
AcDbEntity
  8
pkt_osie
  0
INSERT
  5
365
330
1F
100
AcDbEntity
  8
pkt_osie
  6
Continuous
 62
   160
100
AcDbBlockReference
 66
     1
  2
pikieta
 10
8412528.482482686
 20
5786755.096327831
 30
0.0
 41
0.25
 42
0.25
 43
0.25
  0
ATTRIB
  5
366
330
365
100
AcDbEntity
  8
pkt_osie
100
AcDbText
 10
8412528.482482686
 20
5786755.096327831
 30
0.0
 40
0.2
  1
D6
 41
0.6200000000000001
100
AcDbAttribute
  2
Nr
 70
     0
280
     0
  0
SEQEND
  5
367
330
365
100
AcDbEntity
  8
pkt_osie
  0
INSERT
  5
368
330
1F
100
AcDbEntity
  8
pkt_osie
  6
Continuous
 62
   160
100
AcDbBlockReference
 66
     1
  2
pikieta
 10
8412531.567396722
 20
5786754.245854206
 30
0.0
 41
0.25
 42
0.25
 43
0.25
  0
ATTRIB
  5
369
330
368
100
AcDbEntity
  8
pkt_osie
100
AcDbText
 10
8412531.567396722
 20
5786754.245854206
 30
0.0
 40
0.2
  1
C6
 41
0.6200000000000001
100
AcDbAttribute
  2
Nr
 70
     0
280
     0
  0
SEQEND
  5
36A
330
368
100
AcDbEntity
  8
pkt_osie
  0
INSERT
  5
36B
330
1F
100
AcDbEntity
  8
pkt_osie
  6
Continuous
 62
   160
100
AcDbBlockReference
 66
     1
  2
pikieta
 10
8412535.712749962
 20
5786753.103030281
 30
0.0
 41
0.25
 42
0.25
 43
0.25
  0
ATTRIB
  5
36C
330
36B
100
AcDbEntity
  8
pkt_osie
100
AcDbText
 10
8412535.712749962
 20
5786753.103030281
 30
0.0
 40
0.2
  1
B6
 41
0.6200000000000001
100
AcDbAttribute
  2
Nr
 70
     0
280
     0
  0
SEQEND
  5
36D
330
36B
100
AcDbEntity
  8
pkt_osie
  0
INSERT
  5
36E
330
1F
100
AcDbEntity
  8
pkt_osie
  6
Continuous
 62
   160
100
AcDbBlockReference
 66
     1
  2
pikieta
 10
8412541.014945965
 20
5786751.641278742
 30
0.0
 41
0.25
 42
0.25
 43
0.25
  0
ATTRIB
  5
36F
330
36E
100
AcDbEntity
  8
pkt_osie
100
AcDbText
 10
8412541.014945965
 20
5786751.641278742
 30
0.0
 40
0.2
  1
A'6
 41
0.6200000000000001
100
AcDbAttribute
  2
Nr
 70
     0
280
     0
  0
SEQEND
  5
370
330
36E
100
AcDbEntity
  8
pkt_osie
  0
INSERT
  5
371
330
1F
100
AcDbEntity
  8
pkt_osie
  6
Continuous
 62
   160
100
AcDbBlockReference
 66
     1
  2
pikieta
 10
8412542.943017239
 20
5786751.109732732
 30
0.0
 41
0.25
 42
0.25
 43
0.25
  0
ATTRIB
  5
372
330
371
100
AcDbEntity
  8
pkt_osie
100
AcDbText
 10
8412542.943017239
 20
5786751.109732732
 30
0.0
 40
0.2
  1
A6
 41
0.6200000000000001
100
AcDbAttribute
  2
Nr
 70
     0
280
     0
  0
SEQEND
  5
373
330
371
100
AcDbEntity
  8
pkt_osie
  0
INSERT
  5
374
330
1F
100
AcDbEntity
  8
pkt_osie
  6
Continuous
 62
   160
100
AcDbBlockReference
 66
     1
  2
pikieta
 10
8412544.936242115
 20
5786758.340020045
 30
0.0
 41
0.25
 42
0.25
 43
0.25
  0
ATTRIB
  5
375
330
374
100
AcDbEntity
  8
pkt_osie
100
AcDbText
 10
8412544.936242115
 20
5786758.340020045
 30
0.0
 40
0.2
  1
A5
 41
0.6200000000000001
100
AcDbAttribute
  2
Nr
 70
     0
280
     0
  0
SEQEND
  5
376
330
374
100
AcDbEntity
  8
pkt_osie
  0
INSERT
  5
377
330
1F
100
AcDbEntity
  8
pkt_osie
  6
Continuous
 62
   160
100
AcDbBlockReference
 66
     1
  2
pikieta
 10
8412546.929466991
 20
5786765.570307356
 30
0.0
 41
0.25
 42
0.25
 43
0.25
  0
ATTRIB
  5
378
330
377
100
AcDbEntity
  8
pkt_osie
100
AcDbText
 10
8412546.929466991
 20
5786765.570307356
 30
0.0
 40
0.2
  1
A4
 41
0.6200000000000001
100
AcDbAttribute
  2
Nr
 70
     0
280
     0
  0
SEQEND
  5
379
330
377
100
AcDbEntity
  8
pkt_osie
  0
INSERT
  5
37A
330
1F
100
AcDbEntity
  8
pkt_osie
  6
Continuous
 62
   160
100
AcDbBlockReference
 66
     1
  2
pikieta
 10
8412548.656928548
 20
5786771.836556357
 30
0.0
 41
0.25
 42
0.25
 43
0.25
  0
ATTRIB
  5
37B
330
37A
100
AcDbEntity
  8
pkt_osie
100
AcDbText
 10
8412548.656928548
 20
5786771.836556357
 30
0.0
 40
0.2
  1
A3
 41
0.6200000000000001
100
AcDbAttribute
  2
Nr
 70
     0
280
     0
  0
SEQEND
  5
37C
330
37A
100
AcDbEntity
  8
pkt_osie
  0
INSERT
  5
37D
330
1F
100
AcDbEntity
  8
pkt_osie
  6
Continuous
 62
   160
100
AcDbBlockReference
 66
     1
  2
pikieta
 10
8412550.384390108
 20
5786778.102805361
 30
0.0
 41
0.25
 42
0.25
 43
0.25
  0
ATTRIB
  5
37E
330
37D
100
AcDbEntity
  8
pkt_osie
100
AcDbText
 10
8412550.384390108
 20
5786778.102805361
 30
0.0
 40
0.2
  1
A2
 41
0.6200000000000001
100
AcDbAttribute
  2
Nr
 70
     0
280
     0
  0
SEQEND
  5
37F
330
37D
100
AcDbEntity
  8
pkt_osie
  0
TEXT
  5
380
330
1F
100
AcDbEntity
  8
Osie_nowe
370
    18
100
AcDbText
 39
0.18
 10
8412553.485095363
 20
5786783.525909128
 30
0.0
 40
0.45
  1
100.0000g
 50
299.6
 41
0.6600000000000002
100
AcDbText
  0
TEXT
  5
381
330
1F
100
AcDbEntity
  8
Osie_nowe
370
    18
100
AcDbText
 39
0.18
 10
8412550.543218413
 20
5786785.407213877
 30
0.0
 40
0.45
  1
-2.000-
 50
-15.0
 41
0.6600000000000002
100
AcDbText
  0
TEXT
  5
382
330
1F
100
AcDbEntity
  8
Osie_nowe
370
    18
100
AcDbText
 39
0.18
 10
8412546.928084774
 20
5786786.403862651
 30
0.0
 40
0.45
  1
-5.501-
 50
-15.0
 41
0.6600000000000002
100
AcDbText
  0
TEXT
  5
383
330
1F
100
AcDbEntity
  8
Osie_nowe
370
    18
100
AcDbText
 39
0.18
 10
8412542.204310151
 20
5786787.706150382
 30
0.0
 40
0.45
  1
-4.300-
 50
-15.0
 41
0.6600000000000002
100
AcDbText
  0
TEXT
  5
384
330
1F
100
AcDbEntity
  8
Osie_nowe
370
    18
100
AcDbText
 39
0.18
 10
8412538.589176515
 20
5786788.702799157
 30
0.0
 40
0.45
  1
-3.200-
 50
-15.0
 41
0.6600000000000002
100
AcDbText
  0
TEXT
  5
385
330
1F
100
AcDbEntity
  8
Osie_nowe
370
    18
100
AcDbText
 39
0.18
 10
8412533.672594765
 20
5786790.058241487
 30
0.0
 40
0.45
  1
-7.000-
 50
-15.0
 41
0.6600000000000002
100
AcDbText
  0
TEXT
  5
386
330
1F
100
AcDbEntity
  8
Osie_nowe
370
    18
100
AcDbText
 39
0.18
 10
8412528.129362042
 20
5786791.58644394
 30
0.0
 40
0.45
  1
-4.500-
 50
-15.0
 41
0.6600000000000002
100
AcDbText
  0
TEXT
  5
387
330
1F
100
AcDbEntity
  8
Osie_nowe
370
    18
100
AcDbText
 39
0.18
 10
8412525.476755192
 20
5786787.782373583
 30
0.0
 40
0.45
  1
-7.000-
 50
-285.0
 41
0.6600000000000002
100
AcDbText
  0
TEXT
  5
388
330
1F
100
AcDbEntity
  8
Osie_nowe
370
    18
100
AcDbText
 39
0.18
 10
8412523.682906007
 20
5786781.275307988
 30
0.0
 40
0.45
  1
-6.500-
 50
-285.0
 41
0.6600000000000002
100
AcDbText
  0
TEXT
  5
389
330
1F
100
AcDbEntity
  8
Osie_nowe
370
    18
100
AcDbText
 39
0.18
 10
8412521.955444448
 20
5786775.009058984
 30
0.0
 40
0.45
  1
-6.501-
 50
-285.0
 41
0.6600000000000002
100
AcDbText
  0
TEXT
  5
38A
330
1F
100
AcDbEntity
  8
Osie_nowe
370
    18
100
AcDbText
 39
0.18
 10
8412520.095101232
 20
5786768.260790828
 30
0.0
 40
0.45
  1
-7.500-
 50
-285.0
 41
0.6600000000000002
100
AcDbText
  0
TEXT
  5
38B
330
1F
100
AcDbEntity
  8
Osie_nowe
370
    18
100
AcDbText
 39
0.18
 10
8412518.101876354
 20
5786761.030503518
 30
0.0
 40
0.45
  1
-7.500-
 50
-285.0
 41
0.6600000000000002
100
AcDbText
  0
TEXT
  5
38C
330
1F
100
AcDbEntity
  8
Osie_nowe
370
    18
100
AcDbText
 39
0.18
 10
8412541.241572501
 20
5786751.666269047
 30
0.0
 40
0.45
  1
-2.000-
 50
-15.0
 41
0.6600000000000002
100
AcDbText
  0
TEXT
  5
38D
330
1F
100
AcDbEntity
  8
Osie_nowe
370
    18
100
AcDbText
 39
0.18
 10
8412537.62647509
 20
5786752.662907832
 30
0.0
 40
0.45
  1
-5.500-
 50
-15.0
 41
0.6600000000000002
100
AcDbText
  0
TEXT
  5
38E
330
1F
100
AcDbEntity
  8
Osie_nowe
370
    18
100
AcDbText
 39
0.18
 10
8412532.902700469
 20
5786753.965195564
 30
0.0
 40
0.45
  1
-4.301-
 50
-15.0
 41
0.6600000000000002
100
AcDbText
  0
TEXT
  5
38F
330
1F
100
AcDbEntity
  8
Osie_nowe
370
    18
100
AcDbText
 39
0.18
 10
8412529.287566831
 20
5786754.96184434
 30
0.0
 40
0.45
  1
-3.200-
 50
-15.0
 41
0.6600000000000002
100
AcDbText
  0
TEXT
  5
390
330
1F
100
AcDbEntity
  8
Osie_nowe
370
    18
100
AcDbText
 39
0.18
 10
8412524.370985083
 20
5786756.317286672
 30
0.0
 40
0.45
  1
-7.000-
 50
-15.0
 41
0.6600000000000002
100
AcDbText
  0
TEXT
  5
391
330
1F
100
AcDbEntity
  8
Osie_nowe
370
    18
100
AcDbText
 39
0.18
 10
8412518.827716132
 20
5786757.845499112
 30
0.0
 40
0.45
  1
-4.500-
 50
-15.0
 41
0.6600000000000002
100
AcDbText
  0
TEXT
  5
392
330
1F
100
AcDbEntity
  8
Osie_nowe
370
    18
100
AcDbText
 39
0.18
 10
8412553.775842933
 20
5786785.282499748
 30
0.0
 40
0.45
  1
0.00
 50
164.6
 41
0.6600000000000002
100
AcDbText
  0
TEXT
  5
393
330
1F
100
AcDbEntity
  8
Osie_nowe
370
    15
100
AcDbText
 39
0.15
 10
8412553.555631214
 20
5786784.653809028
 30
0.0
 40
0.38
  1
0.325
 50
164.6
 41
0.6600000000000002
100
AcDbText
  0
TEXT
  5
394
330
1F
100
AcDbEntity
  8
Osie_nowe
370
    15
100
AcDbText
 39
0.15
 10
8412550.895732145
 20
5786784.471049236
 30
0.0
 40
0.38
  1
0.275
 50
343.0
 41
0.6600000000000002
100
AcDbText
  0
TEXT
  5
395
330
1F
100
AcDbEntity
  8
Osie_nowe
370
    15
100
AcDbText
 39
0.15
 10
8412544.484399099
 20
5786750.862017256
 30
0.0
 40
0.38
  1
35.325
 50
164.6
 41
0.6600000000000002
100
AcDbText
  0
TEXT
  5
396
330
1F
100
AcDbEntity
  8
Osie_nowe
370
    15
100
AcDbText
 39
0.15
 10
8412541.261256489
 20
5786750.645483655
 30
0.0
 40
0.38
  1
0.275
 50
343.2
 41
0.6600000000000002
100
AcDbText
  0
POINT
  5
397
330
1F
100
AcDbEntity
  8
0
  6
ByBlock
100
AcDbPoint
 10
8412526.697626923
 20
5786791.89368755
 30
0.0
  0
POINT
  5
398
330
1F
100
AcDbEntity
  8
0
  6
ByBlock
100
AcDbPoint
 10
8412517.396017236
 20
5786758.152732736
 30
0.0
  0
LINE
  5
399
330
1F
100
AcDbEntity
  8
AO-00_Osie
  6
DASHDOTX2
 48
0.025
100
AcDbLine
 10
8412516.420052069
 20
5786754.612485647
 30
0.0
 11
8412527.463025275
 21
5786794.670117874
 31
0.0
  0
LINE
  5
39A
330
1F
100
AcDbEntity
  8
AO-00_Osie
  6
DASHDOTX2
 48
0.025
100
AcDbLine
 10
8412555.444932525
 20
5786783.968712763
 30
0.0
 11
8412523.805511998
 21
5786792.690977502
 31
0.0
  0
LINE
  5
39B
330
1F
100
AcDbEntity
  8
AO-00_Osie
  6
DASHDOTX2
 48
0.025
100
AcDbLine
 10
8412553.584589307
 20
5786777.220444605
 30
0.0
 11
8412521.94516878
 21
5786785.942709342
 31
0.0
  0
LINE
  5
39C
330
1F
100
AcDbEntity
  8
AO-00_Osie
  6
DASHDOTX2
 48
0.025
100
AcDbLine
 10
8412551.857127748
 20
5786770.954195602
 30
0.0
 11
8412520.217707221
 21
5786779.676460339
 31
0.0
  0
LINE
  5
39D
330
1F
100
AcDbEntity
  8
AO-00_Osie
  6
DASHDOTX2
 48
0.025
100
AcDbLine
 10
8412550.129666188
 20
5786764.687946599
 30
0.0
 11
8412518.490245663
 21
5786773.410211337
 31
0.0
  0
LINE
  5
39E
330
1F
100
AcDbEntity
  8
AO-00_Osie
  6
DASHDOTX2
 48
0.025
100
AcDbLine
 10
8412548.13644131
 20
5786757.457659287
 30
0.0
 11
8412516.497020785
 21
5786766.179924027
 31
0.0
  0
LINE
  5
39F
330
1F
100
AcDbEntity
  8
AO-00_Osie
  6
DASHDOTX2
 48
0.025
100
AcDbLine
 10
8412546.143216435
 20
5786750.227371981
 30
0.0
 11
8412514.503795911
 21
5786758.949636719
 31
0.0
  0
LINE
  5
3A0
330
1F
100
AcDbEntity
  8
AO-00_Osie
  6
DASHDOTX2
 48
0.025
100
AcDbLine
 10
8412520.758224463
 20
5786753.416550745
 30
0.0
 11
8412531.801197669
 21
5786793.474182976
 31
0.0
  0
LINE
  5
3A1
330
1F
100
AcDbEntity
  8
AO-00_Osie
  6
DASHDOTX2
 48
0.025
100
AcDbLine
 10
8412527.506492629
 20
5786751.556207566
 30
0.0
 11
8412538.549465837
 21
5786791.613839798
 31
0.0
  0
LINE
  5
3A2
330
1F
100
AcDbEntity
  8
AO-00_Osie
  6
DASHDOTX2
 48
0.025
100
AcDbLine
 10
8412530.591415221
 20
5786750.705764973
 30
0.0
 11
8412541.634388428
 21
5786790.763397203
 31
0.0
  0
LINE
  5
3A3
330
1F
100
AcDbEntity
  8
AO-00_Osie
  6
DASHDOTX2
 48
0.025
100
AcDbLine
 10
8412534.736779951
 20
5786749.562982732
 30
0.0
 11
8412545.779753157
 21
5786789.620614963
 31
0.0
  0
LINE
  5
3A4
330
1F
100
AcDbEntity
  8
AO-00_Osie
  6
DASHDOTX2
 48
0.025
100
AcDbLine
 10
8412540.038990654
 20
5786748.101284522
 30
0.0
 11
8412551.08196386
 21
5786788.15891675
 31
0.0
  0
LINE
  5
3A5
330
1F
100
AcDbEntity
  8
AO-00_Osie
  6
DASHDOTX2
 48
0.025
100
AcDbLine
 10
8412541.967067273
 20
5786747.569757898
 30
0.0
 11
8412553.010040479
 21
5786787.627390127
 31
0.0
  0
LINE
  5
3A6
330
1F
100
AcDbEntity
  8
AO-00_Osie
  6
DASHDOTX2
 48
0.025
100
AcDbLine
 10
8412542.43944601
 20
5786747.439533809
 30
0.0
 11
8412553.748182533
 21
5786788.461204347
 31
0.0
  0
LINE
  5
3A7
330
1F
100
AcDbEntity
  8
PZ-PF_stopa_lawa
 48
0.001
100
AcDbLine
 10
8412534.398339623
 20
5786771.156371356
 30
0.0
 11
8412534.292034296
 21
5786770.770756032
 31
0.0
  0
LWPOLYLINE
  5
3A8
330
1F
100
AcDbEntity
  8
PZ-PF_stopa_fund
 48
0.001
100
AcDbPolyline
 90
        4
 70
     1
 43
0.0
 10
8412534.07902181
 20
5786781.041728763
 10
8412534.876311761
 20
5786783.933843687
 10
8412537.768426684
 20
5786783.136553736
 10
8412536.971136734
 20
5786780.244438812
  0
LINE
  5
3A9
330
1F
100
AcDbEntity
  8
PZ-PF_stopa_lawa
 48
0.001
100
AcDbLine
 10
8412552.592374463
 20
5786785.641991941
 30
0.0
 11
8412542.842843995
 21
5786750.276234811
 31
0.0
  0
LINE
  5
3AA
330
1F
100
AcDbEntity
  8
PZ-PF_stopa_lawa
 48
0.001
100
AcDbLine
 10
8412551.588730178
 20
5786784.258988638
 30
0.0
 11
8412542.477031525
 21
5786751.206922954
 31
0.0
  0
LWPOLYLINE
  5
3AB
330
1F
100
AcDbEntity
  8
PZ-PF_stopa_fund
 48
0.001
100
AcDbPolyline
 90
        4
 70
     1
 43
0.0
 10
8412548.594843196
 20
5786784.404901299
 10
8412549.338980483
 20
5786787.104208563
 10
8412552.038287746
 20
5786786.360071277
 10
8412551.294150457
 20
5786783.660764013
  0
LWPOLYLINE
  5
3AC
330
1F
100
AcDbEntity
  8
PZ-PF_stopa_fund
 48
0.001
100
AcDbPolyline
 90
        4
 70
     1
 43
0.0
 10
8412546.611519816
 20
5786777.586805645
 10
8412547.408809766
 20
5786780.478920569
 10
8412550.300924689
 20
5786779.681630617
 10
8412549.503634739
 20
5786776.789515695
  0
LWPOLYLINE
  5
3AD
330
1F
100
AcDbEntity
  8
PZ-PF_stopa_fund
 48
0.001
100
AcDbPolyline
 90
        4
 70
     1
 43
0.0
 10
8412544.884058256
 20
5786771.320556643
 10
8412545.681348207
 20
5786774.212671566
 10
8412548.57346313
 20
5786773.415381616
 10
8412547.77617318
 20
5786770.523266692
  0
LWPOLYLINE
  5
3AE
330
1F
100
AcDbEntity
  8
PZ-PF_stopa_fund
 48
0.001
100
AcDbPolyline
 90
        4
 70
     1
 43
0.0
 10
8412543.156596694
 20
5786765.05430764
 10
8412543.953886647
 20
5786767.946422563
 10
8412546.846001571
 20
5786767.149132612
 10
8412546.04871162
 20
5786764.257017689
  0
LWPOLYLINE
  5
3AF
330
1F
100
AcDbEntity
  8
PZ-PF_stopa_fund
 48
0.001
100
AcDbPolyline
 90
        4
 70
     1
 43
0.0
 10
8412541.103575064
 20
5786757.60711167
 10
8412541.900865015
 20
5786760.499226593
 10
8412544.792979938
 20
5786759.701936643
 10
8412543.995689988
 20
5786756.809821719
  0
LWPOLYLINE
  5
3B0
330
1F
100
AcDbEntity
  8
PZ-PF_stopa_fund
 48
0.001
100
AcDbPolyline
 90
        4
 70
     1
 43
0.0
 10
8412539.352923884
 20
5786750.880469248
 10
8412540.097061173
 20
5786753.579776509
 10
8412542.796368432
 20
5786752.835639223
 10
8412542.052231147
 20
5786750.13633196
  0
LINE
  5
3B1
330
1F
100
AcDbEntity
  8
PZ-PF_stopa_lawa
 48
0.001
100
AcDbLine
 10
8412537.001163492
 20
5786752.50903445
 30
0.0
 11
8412539.604066923
 21
5786751.791473494
 31
0.0
  0
LINE
  5
3B2
330
1F
100
AcDbEntity
  8
PZ-PF_stopa_lawa
 48
0.001
100
AcDbLine
 10
8412536.841705501
 20
5786751.930611464
 30
0.0
 11
8412539.444608935
 21
5786751.213050512
 31
0.0
  0
LINE
  5
3B3
330
1F
100
AcDbEntity
  8
PZ-PF_stopa_lawa
 48
0.001
100
AcDbLine
 10
8412542.143916196
 20
5786750.468913224
 30
0.0
 11
8412542.842843995
 21
5786750.276234811
 31
0.0
  0
LINE
  5
3B4
330
1F
100
AcDbEntity
  8
PZ-PF_stopa_lawa
 48
0.001
100
AcDbLine
 10
8412551.588730178
 20
5786784.258988638
 30
0.0
 11
8412551.468225414
 21
5786784.292209045
 31
0.0
  0
LINE
  5
3B5
330
1F
100
AcDbEntity
  8
PZ-PF_stopa_lawa
 48
0.001
100
AcDbLine
 10
8412548.768918153
 20
5786785.036346331
 30
0.0
 11
8412531.556013927
 21
5786789.781550419
 31
0.0
  0
LINE
  5
3B6
330
1F
100
AcDbEntity
  8
PZ-PF_stopa_lawa
 48
0.001
100
AcDbLine
 10
8412552.592374463
 20
5786785.641991941
 30
0.0
 11
8412551.893446721
 21
5786785.834670338
 31
0.0
  0
LINE
  5
3B7
330
1F
100
AcDbEntity
  8
PZ-PF_stopa_lawa
 48
0.001
100
AcDbLine
 10
8412549.194139458
 20
5786786.578807624
 30
0.0
 11
8412530.43877394
 21
5786791.749233018
 31
0.0
  0
LINE
  5
3B8
330
1F
100
AcDbEntity
  8
PZ-PF_stopa_lawa
 48
0.001
100
AcDbLine
 10
8412530.43877394
 20
5786791.749233018
 30
0.0
 11
8412525.228484131
 21
5786772.849262048
 31
0.0
  0
LINE
  5
3B9
330
1F
100
AcDbEntity
  8
PZ-PF_stopa_lawa
 48
0.001
100
AcDbLine
 10
8412531.556013927
 20
5786789.781550419
 30
0.0
 11
8412527.461930055
 21
5786774.930540375
 31
0.0
  0
LINE
  5
3BA
330
1F
100
AcDbEntity
  8
PZ-PF_stopa_lawa
 48
0.001
100
AcDbLine
 10
8412527.302472065
 20
5786774.352117391
 30
0.0
 11
8412526.770945422
 21
5786772.424040742
 31
0.0
  0
LINE
  5
3BB
330
1F
100
AcDbEntity
  8
PZ-PF_stopa_lawa
 48
0.001
100
AcDbLine
 10
8412528.652125958
 20
5786773.980048675
 30
0.0
 11
8412527.882741127
 21
5786771.189157682
 31
0.0
  0
LINE
  5
3BC
330
1F
100
AcDbEntity
  8
PZ-PF_stopa_lawa
 48
0.001
100
AcDbLine
 10
8412529.390006938
 20
5786774.39901367
 30
0.0
 11
8412528.461164109
 21
5786771.029699692
 31
0.0
  0
LINE
  5
3BD
330
1F
100
AcDbEntity
  8
PZ-PF_stopa_lawa
 48
0.001
100
AcDbLine
 10
8412543.490129642
 20
5786766.264175658
 30
0.0
 11
8412540.983630043
 21
5786766.955160279
 31
0.0
  0
LINE
  5
3BE
330
1F
100
AcDbEntity
  8
PZ-PF_stopa_lawa
 48
0.001
100
AcDbLine
 10
8412535.987305679
 20
5786768.021341704
 30
0.0
 11
8412533.673613738
 21
5786768.659173664
 31
0.0
  0
LINE
  5
3BF
330
1F
100
AcDbEntity
  8
PZ-PF_stopa_lawa
 48
0.001
100
AcDbLine
 10
8412531.05403547
 20
5786769.692522443
 30
0.0
 11
8412526.884569809
 21
5786770.841948784
 31
0.0
  0
LINE
  5
3C0
330
1F
100
AcDbEntity
  8
PZ-PF_stopa_lawa
 48
0.001
100
AcDbLine
 10
8412523.992454884
 20
5786771.639238734
 30
0.0
 11
8412522.522296441
 21
5786772.0445278
 31
0.0
  0
LINE
  5
3C1
330
1F
100
AcDbEntity
  8
PZ-PF_stopa_lawa
 48
0.001
100
AcDbLine
 10
8412543.649587634
 20
5786766.842598645
 30
0.0
 11
8412541.143088031
 21
5786767.533583266
 31
0.0
  0
LINE
  5
3C2
330
1F
100
AcDbEntity
  8
PZ-PF_stopa_lawa
 48
0.001
100
AcDbLine
 10
8412538.443780771
 20
5786768.277720552
 30
0.0
 11
8412536.226492662
 21
5786768.888976181
 31
0.0
  0
LINE
  5
3C3
330
1F
100
AcDbEntity
  8
PZ-PF_stopa_lawa
 48
0.001
100
AcDbLine
 10
8412535.149375688
 20
5786769.497103654
 30
0.0
 11
8412533.992529716
 21
5786769.816019634
 31
0.0
  0
LINE
  5
3C4
330
1F
100
AcDbEntity
  8
PZ-PF_stopa_lawa
 48
0.001
100
AcDbLine
 10
8412531.21349346
 20
5786770.270945432
 30
0.0
 11
8412528.461164109
 21
5786771.029699692
 31
0.0
  0
LINE
  5
3C5
330
1F
100
AcDbEntity
  8
PZ-PF_stopa_lawa
 48
0.001
100
AcDbLine
 10
8412527.882741127
 20
5786771.189157682
 30
0.0
 11
8412527.044027799
 21
5786771.42037177
 31
0.0
  0
LINE
  5
3C6
330
1F
100
AcDbEntity
  8
PZ-PF_stopa_lawa
 48
0.001
100
AcDbLine
 10
8412524.151912872
 20
5786772.217661718
 30
0.0
 11
8412522.681754433
 21
5786772.622950782
 31
0.0
  0
LINE
  5
3C7
330
1F
100
AcDbEntity
  8
PZ-PF_stopa_lawa
 48
0.001
100
AcDbLine
 10
8412529.390006938
 20
5786774.39901367
 30
0.0
 11
8412527.461930055
 21
5786774.930540375
 31
0.0
  0
LINE
  5
3C8
330
1F
100
AcDbEntity
  8
PZ-PF_stopa_lawa
 48
0.001
100
AcDbLine
 10
8412528.652125958
 20
5786773.980048675
 30
0.0
 11
8412527.302472065
 21
5786774.352117391
 31
0.0
  0
LINE
  5
3C9
330
1F
100
AcDbEntity
  8
PZ-PF_stopa_lawa
 48
0.001
100
AcDbLine
 10
8412533.192748934
 20
5786774.647313593
 30
0.0
 11
8412532.209424663
 21
5786771.080371854
 31
0.0
  0
LINE
  5
3CA
330
1F
100
AcDbEntity
  8
PZ-PF_stopa_lawa
 48
0.001
100
AcDbLine
 10
8412534.349594904
 20
5786774.328397611
 30
0.0
 11
8412533.366270633
 21
5786770.761455875
 31
0.0
  0
LINE
  5
3CB
330
1F
100
AcDbEntity
  8
PZ-PF_stopa_lawa
 48
0.001
100
AcDbLine
 10
8412536.557921264
 20
5786774.606506683
 30
0.0
 11
8412535.521444276
 21
5786770.846757088
 31
0.0
  0
LINE
  5
3CC
330
1F
100
AcDbEntity
  8
PZ-PF_stopa_lawa
 48
0.001
100
AcDbLine
 10
8412535.415138949
 20
5786770.461141762
 30
0.0
 11
8412535.149375688
 21
5786769.497103654
 31
0.0
  0
LINE
  5
3CD
330
1F
100
AcDbEntity
  8
PZ-PF_stopa_lawa
 48
0.001
100
AcDbLine
 10
8412538.033683214
 20
5786775.444436671
 30
0.0
 11
8412535.987305679
 21
5786768.021341704
 31
0.0
  0
LINE
  5
3CE
330
1F
100
AcDbEntity
  8
PZ-PF_stopa_lawa
 48
0.001
100
AcDbLine
 10
8412542.356526712
 20
5786751.240143376
 30
0.0
 11
8412542.477031525
 21
5786751.206922954
 31
0.0
  0
LWPOLYLINE
  5
3CF
330
1F
100
AcDbEntity
  8
PZ-PF_stopa_fund
 48
0.001
100
AcDbPolyline
 90
        4
 70
     1
 43
0.0
 10
8412534.050713189
 20
5786752.342167488
 10
8412534.794850477
 20
5786755.041474754
 10
8412537.494157739
 20
5786754.297337465
 10
8412536.750020452
 20
5786751.598030202
  0
LWPOLYLINE
  5
3D0
330
1F
100
AcDbEntity
  8
PZ-PF_stopa_fund
 48
0.001
100
AcDbPolyline
 90
        4
 70
     1
 43
0.0
 10
8412526.820425879
 20
5786754.335392365
 10
8412527.564563166
 20
5786757.034699631
 10
8412530.263870429
 20
5786756.290562343
 10
8412529.519733142
 20
5786753.591255076
  0
LWPOLYLINE
  5
3D1
330
1F
100
AcDbEntity
  8
PZ-PF_stopa_fund
 48
0.001
100
AcDbPolyline
 90
        4
 70
     1
 43
0.0
 10
8412520.072157722
 20
5786756.195735582
 10
8412520.816295009
 20
5786758.895042847
 10
8412523.515602272
 20
5786758.15090556
 10
8412522.771464985
 20
5786755.451598296
  0
LWPOLYLINE
  5
3D2
330
1F
100
AcDbEntity
  8
PZ-PF_stopa_fund
 48
0.001
100
AcDbPolyline
 90
        4
 70
     1
 43
0.0
 10
8412515.91845558
 20
5786757.496411758
 10
8412516.582863871
 20
5786759.906507528
 10
8412518.992959643
 20
5786759.242099236
 10
8412518.32855135
 20
5786756.832003468
  0
LWPOLYLINE
  5
3D3
330
1F
100
AcDbEntity
  8
PZ-PF_stopa_fund
 48
0.001
100
AcDbPolyline
 90
        4
 70
     1
 43
0.0
 10
8412535.975933115
 20
5786758.761359505
 10
8412536.906104723
 20
5786762.135493582
 10
8412539.316200495
 20
5786761.471085291
 10
8412538.386028886
 20
5786758.096951215
  0
LWPOLYLINE
  5
3D4
330
1F
100
AcDbEntity
  8
PZ-PF_stopa_fund
 48
0.001
100
AcDbPolyline
 90
        4
 70
     1
 43
0.0
 10
8412517.792086964
 20
5786764.29288183
 10
8412518.456495257
 20
5786766.702977598
 10
8412520.866591025
 20
5786766.038569306
 10
8412520.202182733
 20
5786763.628473537
  0
LWPOLYLINE
  5
3D5
330
1F
100
AcDbEntity
  8
PZ-PF_stopa_fund
 48
0.001
100
AcDbPolyline
 90
        4
 70
     1
 43
0.0
 10
8412528.745645806
 20
5786760.754584384
 10
8412529.675817415
 20
5786764.128718463
 10
8412532.085913184
 20
5786763.464310167
 10
8412531.155741575
 20
5786760.090176089
  0
LWPOLYLINE
  5
3D6
330
1F
100
AcDbEntity
  8
PZ-PF_stopa_fund
 48
0.001
100
AcDbPolyline
 90
        4
 70
     1
 43
0.0
 10
8412521.997377647
 20
5786762.614927599
 10
8412522.927549257
 20
5786765.98906168
 10
8412525.337645028
 20
5786765.324653385
 10
8412524.407473419
 20
5786761.950519307
  0
LWPOLYLINE
  5
3D7
330
1F
100
AcDbEntity
  8
PZ-PF_stopa_fund
 48
0.001
100
AcDbPolyline
 90
        4
 70
     1
 43
0.0
 10
8412541.432289284
 20
5786779.118331387
 10
8412542.176426571
 20
5786781.817638649
 10
8412544.875733834
 20
5786781.073501361
 10
8412544.131596547
 20
5786778.374194097
  0
LWPOLYLINE
  5
3D8
330
1F
100
AcDbEntity
  8
PZ-PF_stopa_fund
 48
0.001
100
AcDbPolyline
 90
        4
 70
     1
 43
0.0
 10
8412539.704827722
 20
5786772.852082383
 10
8412540.448965014
 20
5786775.551389646
 10
8412543.148272273
 20
5786774.807252359
 10
8412542.404134986
 20
5786772.107945097
  0
LWPOLYLINE
  5
3D9
330
1F
100
AcDbEntity
  8
PZ-PF_stopa_fund
 48
0.001
100
AcDbPolyline
 90
        4
 70
     1
 43
0.0
 10
8412537.977366165
 20
5786766.58583338
 10
8412538.721503453
 20
5786769.285140644
 10
8412541.420810715
 20
5786768.541003358
 10
8412540.676673426
 20
5786765.841696093
  0
LINE
  5
3DA
330
1F
100
AcDbEntity
  8
PZ-PF_stopa_lawa
 48
0.001
100
AcDbLine
 10
8412545.188357238
 20
5786772.424380442
 30
0.0
 11
8412542.681857635
 21
5786773.115365066
 31
0.0
  0
LINE
  5
3DB
330
1F
100
AcDbEntity
  8
PZ-PF_stopa_lawa
 48
0.001
100
AcDbLine
 10
8412540.011784338
 20
5786773.965546565
 30
0.0
 11
8412537.794496229
 21
5786774.576802192
 31
0.0
  0
LINE
  5
3DC
330
1F
100
AcDbEntity
  8
PZ-PF_stopa_lawa
 48
0.001
100
AcDbLine
 10
8412536.557921264
 20
5786774.606506683
 30
0.0
 11
8412535.401075295
 21
5786774.925422663
 31
0.0
  0
LINE
  5
3DD
330
1F
100
AcDbEntity
  8
PZ-PF_stopa_lawa
 48
0.001
100
AcDbLine
 10
8412545.347815227
 20
5786773.002803426
 30
0.0
 11
8412542.841315625
 21
5786773.69378805
 31
0.0
  0
LINE
  5
3DE
330
1F
100
AcDbEntity
  8
PZ-PF_stopa_lawa
 48
0.001
100
AcDbLine
 10
8412540.171242328
 20
5786774.543969548
 30
0.0
 11
8412537.95395422
 21
5786775.155225178
 31
0.0
  0
LINE
  5
3DF
330
1F
100
AcDbEntity
  8
PZ-PF_stopa_lawa
 48
0.001
100
AcDbLine
 10
8412538.033683214
 20
5786775.444436671
 30
0.0
 11
8412535.719991273
 21
5786776.082268631
 31
0.0
  0
LINE
  5
3E0
330
1F
100
AcDbEntity
  8
PZ-PF_stopa_lawa
 48
0.001
100
AcDbLine
 10
8412545.313054945
 20
5786771.202292064
 30
0.0
 11
8412544.382883336
 21
5786767.828157984
 31
0.0
  0
LINE
  5
3E1
330
1F
100
AcDbEntity
  8
PZ-PF_stopa_lawa
 48
0.001
100
AcDbLine
 10
8412545.891477927
 20
5786771.042834073
 30
0.0
 11
8412544.961306318
 21
5786767.668699996
 31
0.0
  0
LWPOLYLINE
  5
3E2
330
1F
100
AcDbEntity
  8
PZ-PF_stopa_fund
 48
0.001
100
AcDbPolyline
 90
        4
 70
     1
 43
0.0
 10
8412532.474540414
 20
5786774.845307259
 10
8412533.218677701
 20
5786777.544614523
 10
8412535.917984962
 20
5786776.800477233
 10
8412535.173847675
 20
5786774.101169973
  0
LWPOLYLINE
  5
3E3
330
1F
100
AcDbEntity
  8
PZ-PF_stopa_fund
 48
0.001
100
AcDbPolyline
 90
        4
 70
     1
 43
0.0
 10
8412530.747078855
 20
5786768.579058255
 10
8412531.491216142
 20
5786771.278365522
 10
8412534.190523405
 20
5786770.534228232
 10
8412533.446386117
 20
5786767.834920969
  0
LWPOLYLINE
  5
3E4
330
1F
100
AcDbEntity
  8
PZ-PF_stopa_fund
 48
0.001
100
AcDbPolyline
 90
        4
 70
     1
 43
0.0
 10
8412519.845108555
 20
5786771.740077647
 10
8412520.509516848
 20
5786774.15017342
 10
8412522.919612616
 20
5786773.485765128
 10
8412522.255204326
 20
5786771.075669356
  0
LINE
  5
3E5
330
1F
100
AcDbEntity
  8
PZ-PF_stopa_lawa
 48
0.001
100
AcDbLine
 10
8412535.521444276
 20
5786770.846757088
 30
0.0
 11
8412534.398339623
 21
5786771.156371356
 31
0.0
  0
LINE
  5
3E6
330
1F
100
AcDbEntity
  8
PZ-PF_stopa_lawa
 48
0.001
100
AcDbLine
 10
8412535.415138949
 20
5786770.461141762
 30
0.0
 11
8412534.292034296
 21
5786770.770756032
 31
0.0
  0
LWPOLYLINE
  5
3E7
330
1F
100
AcDbEntity
  8
PZ-PF_stopa_fund
 48
0.001
100
AcDbPolyline
 90
        4
 70
     1
 43
0.0
 10
8412523.725362769
 20
5786770.670380292
 10
8412524.389771059
 20
5786773.080476064
 10
8412527.281885983
 20
5786772.283186112
 10
8412526.617477691
 20
5786769.873090341
  0
LINE
  5
3E8
330
1F
100
AcDbEntity
  8
PZ-PF_stopa_lawa
 48
0.001
100
AcDbLine
 10
8412538.28432278
 20
5786767.699297568
 30
0.0
 11
8412536.067034674
 21
5786768.310553196
 31
0.0
  0
LINE
  5
3E9
330
1F
100
AcDbEntity
  8
PZ-PF_stopa_lawa
 48
0.001
100
AcDbLine
 10
8412546.94505276
 20
5786778.796673657
 30
0.0
 11
8412544.438553158
 21
5786779.48765828
 31
0.0
  0
LINE
  5
3EA
330
1F
100
AcDbEntity
  8
PZ-PF_stopa_lawa
 48
0.001
100
AcDbLine
 10
8412547.10451075
 20
5786779.375096642
 30
0.0
 11
8412544.59801115
 21
5786780.066081266
 31
0.0
  0
TEXT
  5
3EB
330
1F
100
AcDbEntity
  8
0
  6
ByBlock
100
AcDbText
 10
8412534.965753335
 20
5786783.77781991
 30
0.0
 40
0.1
  1
1
 72
     1
 11
8412534.982420003
 21
5786783.82781991
 31
0.0
100
AcDbText
 73
     2
  0
TEXT
  5
3EC
330
1F
100
AcDbEntity
  8
0
  6
ByBlock
100
AcDbText
 10
8412537.841201592
 20
5786782.980529959
 30
0.0
 40
0.1
  1
2
 72
     1
 11
8412537.874534926
 21
5786783.030529959
 31
0.0
100
AcDbText
 73
     2
  0
TEXT
  5
3ED
330
1F
100
AcDbEntity
  8
0
  6
ByBlock
100
AcDbText
 10
8412537.043911642
 20
5786780.088415034
 30
0.0
 40
0.1
  1
3
 72
     1
 11
8412537.077244975
 21
5786780.138415034
 31
0.0
100
AcDbText
 73
     2
  0
TEXT
  5
3EE
330
1F
100
AcDbEntity
  8
0
  6
ByBlock
100
AcDbText
 10
8412534.151796716
 20
5786780.885704987
 30
0.0
 40
0.1
  1
4
 72
     1
 11
8412534.18513005
 21
5786780.935704987
 31
0.0
100
AcDbText
 73
     2
  0
TEXT
  5
3EF
330
1F
100
AcDbEntity
  8
0
  6
ByBlock
100
AcDbText
 10
8412542.249201479
 20
5786781.661614871
 30
0.0
 40
0.1
  1
5
 72
     1
 11
8412542.282534811
 21
5786781.711614871
 31
0.0
100
AcDbText
 73
     2
  0
TEXT
  5
3F0
330
1F
100
AcDbEntity
  8
0
  6
ByBlock
100
AcDbText
 10
8412544.948508742
 20
5786780.917477583
 30
0.0
 40
0.1
  1
6
 72
     1
 11
8412544.981842074
 21
5786780.967477583
 31
0.0
100
AcDbText
 73
     2
  0
TEXT
  5
3F1
330
1F
100
AcDbEntity
  8
0
  6
ByBlock
100
AcDbText
 10
8412544.204371453
 20
5786778.218170321
 30
0.0
 40
0.1
  1
7
 72
     1
 11
8412544.237704787
 21
5786778.268170321
 31
0.0
100
AcDbText
 73
     2
  0
TEXT
  5
3F2
330
1F
100
AcDbEntity
  8
0
  6
ByBlock
100
AcDbText
 10
8412541.505064192
 20
5786778.962307608
 30
0.0
 40
0.1
  1
8
 72
     1
 11
8412541.538397524
 21
5786779.012307609
 31
0.0
100
AcDbText
 73
     2
  0
TEXT
  5
3F3
330
1F
100
AcDbEntity
  8
0
  6
ByBlock
100
AcDbText
 10
8412547.481584674
 20
5786780.322896793
 30
0.0
 40
0.1
  1
9
 72
     1
 11
8412547.514918008
 21
5786780.372896792
 31
0.0
100
AcDbText
 73
     2
  0
TEXT
  5
3F4
330
1F
100
AcDbEntity
  8
0
  6
ByBlock
100
AcDbText
 10
8412550.348699596
 20
5786779.525606841
 30
0.0
 40
0.1
  1
10
 72
     1
 11
8412550.407032929
 21
5786779.575606841
 31
0.0
100
AcDbText
 73
     2
  0
TEXT
  5
3F5
330
1F
100
AcDbEntity
  8
0
  6
ByBlock
100
AcDbText
 10
8412549.559742981
 20
5786776.633491918
 30
0.0
 40
0.1
  1
11
 72
     1
 11
8412549.609742981
 21
5786776.683491917
 31
0.0
100
AcDbText
 73
     2
  0
TEXT
  5
3F6
330
1F
100
AcDbEntity
  8
0
  6
ByBlock
100
AcDbText
 10
8412546.650961392
 20
5786777.430781866
 30
0.0
 40
0.1
  1
12
 72
     1
 11
8412546.717628059
 21
5786777.480781867
 31
0.0
100
AcDbText
 73
     2
  0
TEXT
  5
3F7
330
1F
100
AcDbEntity
  8
0
  6
ByBlock
100
AcDbText
 10
8412533.258119276
 20
5786777.388590744
 30
0.0
 40
0.1
  1
13
 72
     1
 11
8412533.324785943
 21
5786777.438590744
 31
0.0
100
AcDbText
 73
     2
  0
TEXT
  5
3F8
330
1F
100
AcDbEntity
  8
0
  6
ByBlock
100
AcDbText
 10
8412535.957426538
 20
5786776.644453457
 30
0.0
 40
0.1
  1
14
 72
     1
 11
8412536.024093203
 21
5786776.694453457
 31
0.0
100
AcDbText
 73
     2
  0
TEXT
  5
3F9
330
1F
100
AcDbEntity
  8
0
  6
ByBlock
100
AcDbText
 10
8412535.213289249
 20
5786773.945146194
 30
0.0
 40
0.1
  1
15
 72
     1
 11
8412535.279955916
 21
5786773.995146194
 31
0.0
100
AcDbText
 73
     2
  0
TEXT
  5
3FA
330
1F
100
AcDbEntity
  8
0
  6
ByBlock
100
AcDbText
 10
8412532.513981989
 20
5786774.689283482
 30
0.0
 40
0.1
  1
16
 72
     1
 11
8412532.580648655
 21
5786774.739283481
 31
0.0
100
AcDbText
 73
     2
  0
TEXT
  5
3FB
330
1F
100
AcDbEntity
  8
0
  6
ByBlock
100
AcDbText
 10
8412540.488406587
 20
5786775.395365869
 30
0.0
 40
0.1
  1
17
 72
     1
 11
8412540.555073254
 21
5786775.445365869
 31
0.0
100
AcDbText
 73
     2
  0
TEXT
  5
3FC
330
1F
100
AcDbEntity
  8
0
  6
ByBlock
100
AcDbText
 10
8412543.187713851
 20
5786774.651228581
 30
0.0
 40
0.1
  1
18
 72
     1
 11
8412543.254380517
 21
5786774.701228581
 31
0.0
100
AcDbText
 73
     2
  0
TEXT
  5
3FD
330
1F
100
AcDbEntity
  8
0
  6
ByBlock
100
AcDbText
 10
8412542.443576562
 20
5786771.951921318
 30
0.0
 40
0.1
  1
19
 72
     1
 11
8412542.510243227
 21
5786772.001921319
 31
0.0
100
AcDbText
 73
     2
  0
TEXT
  5
3FE
330
1F
100
AcDbEntity
  8
0
  6
ByBlock
100
AcDbText
 10
8412539.735935963
 20
5786772.696058607
 30
0.0
 40
0.1
  1
20
 72
     1
 11
8412539.810935962
 21
5786772.746058606
 31
0.0
100
AcDbText
 73
     2
  0
TEXT
  5
3FF
330
1F
100
AcDbEntity
  8
0
  6
ByBlock
100
AcDbText
 10
8412545.720789781
 20
5786774.056647791
 30
0.0
 40
0.1
  1
21
 72
     1
 11
8412545.787456448
 21
5786774.10664779
 31
0.0
100
AcDbText
 73
     2
  0
TEXT
  5
400
330
1F
100
AcDbEntity
  8
0
  6
ByBlock
100
AcDbText
 10
8412548.596238039
 20
5786773.259357838
 30
0.0
 40
0.1
  1
22
 72
     1
 11
8412548.679571374
 21
5786773.309357839
 31
0.0
100
AcDbText
 73
     2
  0
TEXT
  5
401
330
1F
100
AcDbEntity
  8
0
  6
ByBlock
100
AcDbText
 10
8412547.798948088
 20
5786770.367242914
 30
0.0
 40
0.1
  1
23
 72
     1
 11
8412547.882281421
 21
5786770.417242913
 31
0.0
100
AcDbText
 73
     2
  0
TEXT
  5
402
330
1F
100
AcDbEntity
  8
0
  6
ByBlock
100
AcDbText
 10
8412544.906833161
 20
5786771.164532865
 30
0.0
 40
0.1
  1
24
 72
     1
 11
8412544.990166496
 21
5786771.214532865
 31
0.0
100
AcDbText
 73
     2
  0
TEXT
  5
403
330
1F
100
AcDbEntity
  8
0
  6
ByBlock
100
AcDbText
 10
8412520.532291752
 20
5786773.994149643
 30
0.0
 40
0.1
  1
25
 72
     1
 11
8412520.615625087
 21
5786774.044149642
 31
0.0
100
AcDbText
 73
     2
  0
TEXT
  5
404
330
1F
100
AcDbEntity
  8
0
  6
ByBlock
100
AcDbText
 10
8412522.942387523
 20
5786773.32974135
 30
0.0
 40
0.1
  1
26
 72
     1
 11
8412523.025720858
 21
5786773.37974135
 31
0.0
100
AcDbText
 73
     2
  0
TEXT
  5
405
330
1F
100
AcDbEntity
  8
0
  6
ByBlock
100
AcDbText
 10
8412519.867883464
 20
5786771.58405387
 30
0.0
 40
0.1
  1
27
 72
     1
 11
8412519.951216799
 21
5786771.63405387
 31
0.0
100
AcDbText
 73
     2
  0
TEXT
  5
406
330
1F
100
AcDbEntity
  8
0
  6
ByBlock
100
AcDbText
 10
8412522.277979233
 20
5786770.919645578
 30
0.0
 40
0.1
  1
28
 72
     1
 11
8412522.361312566
 21
5786770.969645579
 31
0.0
100
AcDbText
 73
     2
  0
TEXT
  5
407
330
1F
100
AcDbEntity
  8
0
  6
ByBlock
100
AcDbText
 10
8412524.412545968
 20
5786772.924452288
 30
0.0
 40
0.1
  1
29
 72
     1
 11
8412524.495879301
 21
5786772.974452287
 31
0.0
100
AcDbText
 73
     2
  0
TEXT
  5
408
330
1F
100
AcDbEntity
  8
0
  6
ByBlock
100
AcDbText
 10
8412527.312994225
 20
5786772.127162335
 30
0.0
 40
0.1
  1
30
 72
     1
 11
8412527.387994224
 21
5786772.177162336
 31
0.0
100
AcDbText
 73
     2
  0
TEXT
  5
409
330
1F
100
AcDbEntity
  8
0
  6
ByBlock
100
AcDbText
 10
8412526.656919265
 20
5786769.717066564
 30
0.0
 40
0.1
  1
31
 72
     1
 11
8412526.723585932
 21
5786769.767066563
 31
0.0
100
AcDbText
 73
     2
  0
TEXT
  5
40A
330
1F
100
AcDbEntity
  8
0
  6
ByBlock
100
AcDbText
 10
8412523.748137672
 20
5786770.514356516
 30
0.0
 40
0.1
  1
32
 72
     1
 11
8412523.831471007
 21
5786770.564356515
 31
0.0
100
AcDbText
 73
     2
  0
TEXT
  5
40B
330
1F
100
AcDbEntity
  8
0
  6
ByBlock
100
AcDbText
 10
8412531.51399105
 20
5786771.122341742
 30
0.0
 40
0.1
  1
33
 72
     1
 11
8412531.597324383
 21
5786771.172341742
 31
0.0
100
AcDbText
 73
     2
  0
TEXT
  5
40C
330
1F
100
AcDbEntity
  8
0
  6
ByBlock
100
AcDbText
 10
8412534.213298309
 20
5786770.378204456
 30
0.0
 40
0.1
  1
34
 72
     1
 11
8412534.296631644
 21
5786770.428204456
 31
0.0
100
AcDbText
 73
     2
  0
TEXT
  5
40D
330
1F
100
AcDbEntity
  8
0
  6
ByBlock
100
AcDbText
 10
8412533.469161024
 20
5786767.678897192
 30
0.0
 40
0.1
  1
35
 72
     1
 11
8412533.552494359
 21
5786767.728897191
 31
0.0
100
AcDbText
 73
     2
  0
TEXT
  5
40E
330
1F
100
AcDbEntity
  8
0
  6
ByBlock
100
AcDbText
 10
8412530.769853761
 20
5786768.423034478
 30
0.0
 40
0.1
  1
36
 72
     1
 11
8412530.853187096
 21
5786768.473034478
 31
0.0
100
AcDbText
 73
     2
  0
TEXT
  5
40F
330
1F
100
AcDbEntity
  8
0
  6
ByBlock
100
AcDbText
 10
8412538.744278361
 20
5786769.129116868
 30
0.0
 40
0.1
  1
37
 72
     1
 11
8412538.827611694
 21
5786769.179116868
 31
0.0
100
AcDbText
 73
     2
  0
TEXT
  5
410
330
1F
100
AcDbEntity
  8
0
  6
ByBlock
100
AcDbText
 10
8412541.44358562
 20
5786768.384979581
 30
0.0
 40
0.1
  1
38
 72
     1
 11
8412541.526918955
 21
5786768.43497958
 31
0.0
100
AcDbText
 73
     2
  0
TEXT
  5
411
330
1F
100
AcDbEntity
  8
0
  6
ByBlock
100
AcDbText
 10
8412540.699448333
 20
5786765.685672314
 30
0.0
 40
0.1
  1
39
 72
     1
 11
8412540.782781668
 21
5786765.735672315
 31
0.0
100
AcDbText
 73
     2
  0
TEXT
  5
412
330
1F
100
AcDbEntity
  8
0
  6
ByBlock
100
AcDbText
 10
8412538.008474406
 20
5786766.429809603
 30
0.0
 40
0.1
  1
40
 72
     1
 11
8412538.083474405
 21
5786766.479809602
 31
0.0
100
AcDbText
 73
     2
  0
TEXT
  5
413
330
1F
100
AcDbEntity
  8
0
  6
ByBlock
100
AcDbText
 10
8412543.99332822
 20
5786767.790398788
 30
0.0
 40
0.1
  1
41
 72
     1
 11
8412544.059994887
 21
5786767.840398787
 31
0.0
100
AcDbText
 73
     2
  0
TEXT
  5
414
330
1F
100
AcDbEntity
  8
0
  6
ByBlock
100
AcDbText
 10
8412546.868776479
 20
5786766.993108836
 30
0.0
 40
0.1
  1
42
 72
     1
 11
8412546.952109812
 21
5786767.043108835
 31
0.0
100
AcDbText
 73
     2
  0
TEXT
  5
415
330
1F
100
AcDbEntity
  8
0
  6
ByBlock
100
AcDbText
 10
8412546.071486525
 20
5786764.100993913
 30
0.0
 40
0.1
  1
43
 72
     1
 11
8412546.15481986
 21
5786764.150993913
 31
0.0
100
AcDbText
 73
     2
  0
TEXT
  5
416
330
1F
100
AcDbEntity
  8
0
  6
ByBlock
100
AcDbText
 10
8412543.179371603
 20
5786764.898283862
 30
0.0
 40
0.1
  1
44
 72
     1
 11
8412543.262704938
 21
5786764.948283862
 31
0.0
100
AcDbText
 73
     2
  0
TEXT
  5
417
330
1F
100
AcDbEntity
  8
0
  6
ByBlock
100
AcDbText
 10
8412518.479270161
 20
5786766.546953822
 30
0.0
 40
0.1
  1
45
 72
     1
 11
8412518.562603496
 21
5786766.596953822
 31
0.0
100
AcDbText
 73
     2
  0
TEXT
  5
418
330
1F
100
AcDbEntity
  8
0
  6
ByBlock
100
AcDbText
 10
8412520.889365932
 20
5786765.88254553
 30
0.0
 40
0.1
  1
46
 72
     1
 11
8412520.972699265
 21
5786765.93254553
 31
0.0
100
AcDbText
 73
     2
  0
TEXT
  5
419
330
1F
100
AcDbEntity
  8
0
  6
ByBlock
100
AcDbText
 10
8412520.22495764
 20
5786763.472449758
 30
0.0
 40
0.1
  1
47
 72
     1
 11
8412520.308290973
 21
5786763.522449758
 31
0.0
100
AcDbText
 73
     2
  0
TEXT
  5
41A
330
1F
100
AcDbEntity
  8
0
  6
ByBlock
100
AcDbText
 10
8412517.814861869
 20
5786764.136858052
 30
0.0
 40
0.1
  1
48
 72
     1
 11
8412517.898195202
 21
5786764.186858053
 31
0.0
100
AcDbText
 73
     2
  0
TEXT
  5
41B
330
1F
100
AcDbEntity
  8
0
  6
ByBlock
100
AcDbText
 10
8412522.950324163
 20
5786765.833037902
 30
0.0
 40
0.1
  1
49
 72
     1
 11
8412523.033657498
 21
5786765.883037902
 31
0.0
100
AcDbText
 73
     2
  0
TEXT
  5
41C
330
1F
100
AcDbEntity
  8
0
  6
ByBlock
100
AcDbText
 10
8412525.36875327
 20
5786765.168629609
 30
0.0
 40
0.1
  1
50
 72
     1
 11
8412525.443753269
 21
5786765.218629609
 31
0.0
100
AcDbText
 73
     2
  0
TEXT
  5
41D
330
1F
100
AcDbEntity
  8
0
  6
ByBlock
100
AcDbText
 10
8412524.446914993
 20
5786761.794495531
 30
0.0
 40
0.1
  1
51
 72
     1
 11
8412524.51358166
 21
5786761.844495531
 31
0.0
100
AcDbText
 73
     2
  0
TEXT
  5
41E
330
1F
100
AcDbEntity
  8
0
  6
ByBlock
100
AcDbText
 10
8412522.020152554
 20
5786762.458903824
 30
0.0
 40
0.1
  1
52
 72
     1
 11
8412522.103485889
 21
5786762.508903824
 31
0.0
100
AcDbText
 73
     2
  0
TEXT
  5
41F
330
1F
100
AcDbEntity
  8
0
  6
ByBlock
100
AcDbText
 10
8412529.698592322
 20
5786763.972694684
 30
0.0
 40
0.1
  1
53
 72
     1
 11
8412529.781925655
 21
5786764.022694684
 31
0.0
100
AcDbText
 73
     2
  0
TEXT
  5
420
330
1F
100
AcDbEntity
  8
0
  6
ByBlock
100
AcDbText
 10
8412532.108688091
 20
5786763.308286394
 30
0.0
 40
0.1
  1
54
 72
     1
 11
8412532.192021426
 21
5786763.358286393
 31
0.0
100
AcDbText
 73
     2
  0
TEXT
  5
421
330
1F
100
AcDbEntity
  8
0
  6
ByBlock
100
AcDbText
 10
8412531.178516482
 20
5786759.934152312
 30
0.0
 40
0.1
  1
55
 72
     1
 11
8412531.261849817
 21
5786759.984152312
 31
0.0
100
AcDbText
 73
     2
  0
TEXT
  5
422
330
1F
100
AcDbEntity
  8
0
  6
ByBlock
100
AcDbText
 10
8412528.768420713
 20
5786760.598560606
 30
0.0
 40
0.1
  1
56
 72
     1
 11
8412528.851754046
 21
5786760.648560606
 31
0.0
100
AcDbText
 73
     2
  0
TEXT
  5
423
330
1F
100
AcDbEntity
  8
0
  6
ByBlock
100
AcDbText
 10
8412536.928879633
 20
5786761.979469806
 30
0.0
 40
0.1
  1
57
 72
     1
 11
8412537.012212967
 21
5786762.029469806
 31
0.0
100
AcDbText
 73
     2
  0
TEXT
  5
424
330
1F
100
AcDbEntity
  8
0
  6
ByBlock
100
AcDbText
 10
8412539.338975401
 20
5786761.315061515
 30
0.0
 40
0.1
  1
58
 72
     1
 11
8412539.422308736
 21
5786761.365061515
 31
0.0
100
AcDbText
 73
     2
  0
TEXT
  5
425
330
1F
100
AcDbEntity
  8
0
  6
ByBlock
100
AcDbText
 10
8412538.408803793
 20
5786757.940927437
 30
0.0
 40
0.1
  1
59
 72
     1
 11
8412538.492137127
 21
5786757.990927437
 31
0.0
100
AcDbText
 73
     2
  0
TEXT
  5
426
330
1F
100
AcDbEntity
  8
0
  6
ByBlock
100
AcDbText
 10
8412536.007041358
 20
5786758.605335727
 30
0.0
 40
0.1
  1
60
 72
     1
 11
8412536.082041357
 21
5786758.655335727
 31
0.0
100
AcDbText
 73
     2
  0
TEXT
  5
427
330
1F
100
AcDbEntity
  8
0
  6
ByBlock
100
AcDbText
 10
8412541.940306589
 20
5786760.343202817
 30
0.0
 40
0.1
  1
61
 72
     1
 11
8412542.006973255
 21
5786760.393202817
 31
0.0
100
AcDbText
 73
     2
  0
TEXT
  5
428
330
1F
100
AcDbEntity
  8
0
  6
ByBlock
100
AcDbText
 10
8412544.815754843
 20
5786759.545912866
 30
0.0
 40
0.1
  1
62
 72
     1
 11
8412544.899088178
 21
5786759.595912866
 31
0.0
100
AcDbText
 73
     2
  0
TEXT
  5
429
330
1F
100
AcDbEntity
  8
0
  6
ByBlock
100
AcDbText
 10
8412544.018464894
 20
5786756.653797944
 30
0.0
 40
0.1
  1
63
 72
     1
 11
8412544.101798228
 21
5786756.703797943
 31
0.0
100
AcDbText
 73
     2
  0
TEXT
  5
42A
330
1F
100
AcDbEntity
  8
0
  6
ByBlock
100
AcDbText
 10
8412541.126349973
 20
5786757.451087892
 30
0.0
 40
0.1
  1
64
 72
     1
 11
8412541.209683306
 21
5786757.501087893
 31
0.0
100
AcDbText
 73
     2
  0
TEXT
  5
42B
330
1F
100
AcDbEntity
  8
0
  6
ByBlock
100
AcDbText
 10
8412516.605638778
 20
5786759.750483752
 30
0.0
 40
0.1
  1
65
 72
     1
 11
8412516.688972111
 21
5786759.800483752
 31
0.0
100
AcDbText
 73
     2
  0
TEXT
  5
42C
330
1F
100
AcDbEntity
  8
0
  6
ByBlock
100
AcDbText
 10
8412519.015734547
 20
5786759.08607546
 30
0.0
 40
0.1
  1
66
 72
     1
 11
8412519.099067882
 21
5786759.13607546
 31
0.0
100
AcDbText
 73
     2
  0
TEXT
  5
42D
330
1F
100
AcDbEntity
  8
0
  6
ByBlock
100
AcDbText
 10
8412518.351326259
 20
5786756.675979691
 30
0.0
 40
0.1
  1
67
 72
     1
 11
8412518.434659592
 21
5786756.725979691
 31
0.0
100
AcDbText
 73
     2
  0
TEXT
  5
42E
330
1F
100
AcDbEntity
  8
0
  6
ByBlock
100
AcDbText
 10
8412515.941230488
 20
5786757.34038798
 30
0.0
 40
0.1
  1
68
 72
     1
 11
8412516.024563821
 21
5786757.39038798
 31
0.0
100
AcDbText
 73
     2
  0
TEXT
  5
42F
330
1F
100
AcDbEntity
  8
0
  6
ByBlock
100
AcDbText
 10
8412520.885559596
 20
5786758.726202929
 30
0.0
 40
0.1
  1
69
 72
     1
 11
8412520.96889293
 21
5786758.776202929
 31
0.0
100
AcDbText
 73
     2
  0
TEXT
  5
430
330
1F
100
AcDbEntity
  8
0
  6
ByBlock
100
AcDbText
 10
8412523.546710515
 20
5786757.994881784
 30
0.0
 40
0.1
  1
70
 72
     1
 11
8412523.621710514
 21
5786758.044881784
 31
0.0
100
AcDbText
 73
     2
  0
TEXT
  5
431
330
1F
100
AcDbEntity
  8
0
  6
ByBlock
100
AcDbText
 10
8412522.81090656
 20
5786755.295574518
 30
0.0
 40
0.1
  1
71
 72
     1
 11
8412522.877573225
 21
5786755.345574517
 31
0.0
100
AcDbText
 73
     2
  0
TEXT
  5
432
330
1F
100
AcDbEntity
  8
0
  6
ByBlock
100
AcDbText
 10
8412520.094932629
 20
5786756.039711806
 30
0.0
 40
0.1
  1
72
 72
     1
 11
8412520.178265962
 21
5786756.089711806
 31
0.0
100
AcDbText
 73
     2
  0
TEXT
  5
433
330
1F
100
AcDbEntity
  8
0
  6
ByBlock
100
AcDbText
 10
8412527.587338074
 20
5786756.878675853
 30
0.0
 40
0.1
  1
73
 72
     1
 11
8412527.670671407
 21
5786756.928675853
 31
0.0
100
AcDbText
 73
     2
  0
TEXT
  5
434
330
1F
100
AcDbEntity
  8
0
  6
ByBlock
100
AcDbText
 10
8412530.286645337
 20
5786756.134538567
 30
0.0
 40
0.1
  1
74
 72
     1
 11
8412530.36997867
 21
5786756.184538567
 31
0.0
100
AcDbText
 73
     2
  0
TEXT
  5
435
330
1F
100
AcDbEntity
  8
0
  6
ByBlock
100
AcDbText
 10
8412529.54250805
 20
5786753.435231299
 30
0.0
 40
0.1
  1
75
 72
     1
 11
8412529.625841383
 21
5786753.485231299
 31
0.0
100
AcDbText
 73
     2
  0
TEXT
  5
436
330
1F
100
AcDbEntity
  8
0
  6
ByBlock
100
AcDbText
 10
8412526.843200787
 20
5786754.179368588
 30
0.0
 40
0.1
  1
76
 72
     1
 11
8412526.92653412
 21
5786754.229368588
 31
0.0
100
AcDbText
 73
     2
  0
TEXT
  5
437
330
1F
100
AcDbEntity
  8
0
  6
ByBlock
100
AcDbText
 10
8412534.817625386
 20
5786754.885450976
 30
0.0
 40
0.1
  1
77
 72
     1
 11
8412534.90095872
 21
5786754.935450976
 31
0.0
100
AcDbText
 73
     2
  0
TEXT
  5
438
330
1F
100
AcDbEntity
  8
0
  6
ByBlock
100
AcDbText
 10
8412537.429487471
 20
5786754.165420326
 30
0.0
 40
0.1
  1
78
 72
     1
 11
8412537.512820804
 21
5786754.215420326
 31
0.0
100
AcDbText
 73
     2
  0
TEXT
  5
439
330
1F
100
AcDbEntity
  8
0
  6
ByBlock
100
AcDbText
 10
8412536.772795359
 20
5786751.442006425
 30
0.0
 40
0.1
  1
79
 72
     1
 11
8412536.856128692
 21
5786751.492006425
 31
0.0
100
AcDbText
 73
     2
  0
TEXT
  5
43A
330
1F
100
AcDbEntity
  8
0
  6
ByBlock
100
AcDbText
 10
8412534.08182143
 20
5786752.186143713
 30
0.0
 40
0.1
  1
80
 72
     1
 11
8412534.156821429
 21
5786752.236143713
 31
0.0
100
AcDbText
 73
     2
  0
TEXT
  5
43B
330
1F
100
AcDbEntity
  8
0
  6
ByBlock
100
AcDbText
 10
8412540.136502746
 20
5786753.423752733
 30
0.0
 40
0.1
  1
81
 72
     1
 11
8412540.203169413
 21
5786753.473752733
 31
0.0
100
AcDbText
 73
     2
  0
TEXT
  5
43C
330
1F
100
AcDbEntity
  8
0
  6
ByBlock
100
AcDbText
 10
8412542.81914334
 20
5786752.679615447
 30
0.0
 40
0.1
  1
82
 72
     1
 11
8412542.902476674
 21
5786752.729615447
 31
0.0
100
AcDbText
 73
     2
  0
TEXT
  5
43D
330
1F
100
AcDbEntity
  8
0
  6
ByBlock
100
AcDbText
 10
8412542.075006053
 20
5786749.980308184
 30
0.0
 40
0.1
  1
83
 72
     1
 11
8412542.158339388
 21
5786750.030308184
 31
0.0
100
AcDbText
 73
     2
  0
TEXT
  5
43E
330
1F
100
AcDbEntity
  8
0
  6
ByBlock
100
AcDbText
 10
8412539.375698791
 20
5786750.724445471
 30
0.0
 40
0.1
  1
84
 72
     1
 11
8412539.459032126
 21
5786750.77444547
 31
0.0
100
AcDbText
 73
     2
  0
LINE
  5
43F
330
1F
100
AcDbEntity
  8
0
  6
ByBlock
100
AcDbLine
 10
8412549.194139458
 20
5786786.578807624
 30
0.0
 11
8412548.768918153
 21
5786785.036346331
 31
0.0
  0
LINE
  5
440
330
1F
100
AcDbEntity
  8
0
  6
ByBlock
100
AcDbLine
 10
8412531.556013927
 20
5786789.781550419
 30
0.0
 11
8412531.981235234
 21
5786791.324011711
 31
0.0
  0
LINE
  5
441
330
1F
100
AcDbEntity
  8
0
  6
ByBlock
100
AcDbLine
 10
8412531.556013927
 20
5786789.781550419
 30
0.0
 11
8412530.013552633
 21
5786790.206771728
 31
0.0
  0
LINE
  5
442
330
1F
100
AcDbEntity
  8
0
  6
ByBlock
100
AcDbLine
 10
8412530.78478328
 20
5786789.994161072
 30
0.0
 11
8412531.210004587
 21
5786791.536622364
 31
0.0
  0
LINE
  5
443
330
1F
100
AcDbEntity
  8
0
  6
ByBlock
100
AcDbLine
 10
8412531.768624583
 20
5786790.552781065
 30
0.0
 11
8412530.226163285
 21
5786790.978002373
 31
0.0
  0
LINE
  5
444
330
1F
100
AcDbEntity
  8
0
  6
ByBlock
100
AcDbLine
 10
8412527.461930055
 20
5786774.930540375
 30
0.0
 11
8412525.919468764
 21
5786775.355761682
 31
0.0
  0
TEXT
  5
445
330
1F
100
AcDbEntity
  8
0
  6
ByBlock
100
AcDbText
 10
8412548.987637046
 20
5786785.6515532
 30
0.0
 40
0.1
  1
100
 72
     1
 11
8412549.087637046
 21
5786785.7015532
 31
0.0
100
AcDbText
 73
     2
  0
TEXT
  5
446
330
1F
100
AcDbEntity
  8
0
  6
ByBlock
100
AcDbText
 10
8412531.011835508
 20
5786790.609367941
 30
0.0
 40
0.1
  1
101
 72
     1
 11
8412531.103502173
 21
5786790.659367941
 31
0.0
100
AcDbText
 73
     2
  0
TEXT
  5
447
330
1F
100
AcDbEntity
  8
0
  6
ByBlock
100
AcDbText
 10
8412526.688474319
 20
5786774.987127251
 30
0.0
 40
0.1
  1
102
 72
     1
 11
8412526.79680765
 21
5786775.037127251
 31
0.0
100
AcDbText
 73
     2
  0
TEXT
  5
448
330
1F
100
AcDbEntity
  8
0
  6
ByBlock
100
AcDbText
 10
8412529.387781839
 20
5786774.242989882
 30
0.0
 40
0.1
  1
103
 72
     1
 11
8412529.496115173
 21
5786774.292989882
 31
0.0
100
AcDbText
 73
     2
  0
TEXT
  5
449
330
1F
100
AcDbEntity
  8
0
  6
ByBlock
100
AcDbText
 10
8412528.45893902
 20
5786770.873675915
 30
0.0
 40
0.1
  1
104
 72
     1
 11
8412528.567272351
 21
5786770.923675915
 31
0.0
100
AcDbText
 73
     2
  0
TEXT
  5
44A
330
1F
100
AcDbEntity
  8
0
  6
ByBlock
100
AcDbText
 10
8412531.211268365
 20
5786770.114921653
 30
0.0
 40
0.1
  1
105
 72
     1
 11
8412531.319601699
 21
5786770.164921652
 31
0.0
100
AcDbText
 73
     2
  0
TEXT
  5
44B
330
1F
100
AcDbEntity
  8
0
  6
ByBlock
100
AcDbText
 10
8412531.051810379
 20
5786769.536498668
 30
0.0
 40
0.1
  1
106
 72
     1
 11
8412531.160143711
 21
5786769.586498667
 31
0.0
100
AcDbText
 73
     2
  0
TEXT
  5
44C
330
1F
100
AcDbEntity
  8
0
  6
ByBlock
100
AcDbText
 10
8412526.882344717
 20
5786770.685925007
 30
0.0
 40
0.1
  1
107
 72
     1
 11
8412526.990678049
 21
5786770.735925007
 31
0.0
100
AcDbText
 73
     2
  0
TEXT
  5
44D
330
1F
100
AcDbEntity
  8
0
  6
ByBlock
100
AcDbText
 10
8412527.041802707
 20
5786771.264347991
 30
0.0
 40
0.1
  1
108
 72
     1
 11
8412527.150136039
 21
5786771.314347991
 31
0.0
100
AcDbText
 73
     2
  0
TEXT
  5
44E
330
1F
100
AcDbEntity
  8
0
  6
ByBlock
100
AcDbText
 10
8412527.880516032
 20
5786771.033133906
 30
0.0
 40
0.1
  1
109
 72
     1
 11
8412527.988849365
 21
5786771.083133905
 31
0.0
100
AcDbText
 73
     2
  0
TEXT
  5
44F
330
1F
100
AcDbEntity
  8
0
  6
ByBlock
100
AcDbText
 10
8412528.666567531
 20
5786773.824024898
 30
0.0
 40
0.1
  1
110
 72
     1
 11
8412528.758234198
 21
5786773.874024897
 31
0.0
100
AcDbText
 73
     2
  0
TEXT
  5
450
330
1F
100
AcDbEntity
  8
0
  6
ByBlock
100
AcDbText
 10
8412527.325246973
 20
5786774.196093614
 30
0.0
 40
0.1
  1
111
 72
     1
 11
8412527.408580308
 21
5786774.246093614
 31
0.0
100
AcDbText
 73
     2
  0
TEXT
  5
451
330
1F
100
AcDbEntity
  8
0
  6
ByBlock
100
AcDbText
 10
8412526.777053663
 20
5786772.268016964
 30
0.0
 40
0.1
  1
112
 72
     1
 11
8412526.877053663
 21
5786772.318016963
 31
0.0
100
AcDbText
 73
     2
  0
TEXT
  5
452
330
1F
100
AcDbEntity
  8
0
  6
ByBlock
100
AcDbText
 10
8412524.158021115
 20
5786772.061637942
 30
0.0
 40
0.1
  1
113
 72
     1
 11
8412524.258021115
 21
5786772.111637942
 31
0.0
100
AcDbText
 73
     2
  0
TEXT
  5
453
330
1F
100
AcDbEntity
  8
0
  6
ByBlock
100
AcDbText
 10
8412523.998563127
 20
5786771.483214956
 30
0.0
 40
0.1
  1
114
 72
     1
 11
8412524.098563126
 21
5786771.533214956
 31
0.0
100
AcDbText
 73
     2
  0
TEXT
  5
454
330
1F
100
AcDbEntity
  8
0
  6
ByBlock
100
AcDbText
 10
8412522.528404684
 20
5786771.888504022
 30
0.0
 40
0.1
  1
115
 72
     1
 11
8412522.628404683
 21
5786771.938504021
 31
0.0
100
AcDbText
 73
     2
  0
TEXT
  5
455
330
1F
100
AcDbEntity
  8
0
  6
ByBlock
100
AcDbText
 10
8412522.687862674
 20
5786772.466927007
 30
0.0
 40
0.1
  1
116
 72
     1
 11
8412522.787862673
 21
5786772.516927007
 31
0.0
100
AcDbText
 73
     2
  0
TEXT
  5
456
330
1F
100
AcDbEntity
  8
0
  6
ByBlock
100
AcDbText
 10
8412536.232600903
 20
5786768.732952403
 30
0.0
 40
0.1
  1
117
 72
     1
 11
8412536.332600902
 21
5786768.782952402
 31
0.0
100
AcDbText
 73
     2
  0
TEXT
  5
457
330
1F
100
AcDbEntity
  8
0
  6
ByBlock
100
AcDbText
 10
8412536.073142913
 20
5786768.15452942
 30
0.0
 40
0.1
  1
118
 72
     1
 11
8412536.173142912
 21
5786768.20452942
 31
0.0
100
AcDbText
 73
     2
  0
TEXT
  5
458
330
1F
100
AcDbEntity
  8
0
  6
ByBlock
100
AcDbText
 10
8412538.290431021
 20
5786767.54327379
 30
0.0
 40
0.1
  1
119
 72
     1
 11
8412538.39043102
 21
5786767.59327379
 31
0.0
100
AcDbText
 73
     2
  0
TEXT
  5
459
330
1F
100
AcDbEntity
  8
0
  6
ByBlock
100
AcDbText
 10
8412538.44155568
 20
5786768.121696776
 30
0.0
 40
0.1
  1
120
 72
     1
 11
8412538.549889013
 21
5786768.171696776
 31
0.0
100
AcDbText
 73
     2
  0
TEXT
  5
45A
330
1F
100
AcDbEntity
  8
0
  6
ByBlock
100
AcDbText
 10
8412541.149196274
 20
5786767.37755949
 30
0.0
 40
0.1
  1
121
 72
     1
 11
8412541.249196273
 21
5786767.42755949
 31
0.0
100
AcDbText
 73
     2
  0
TEXT
  5
45B
330
1F
100
AcDbEntity
  8
0
  6
ByBlock
100
AcDbText
 10
8412540.973071616
 20
5786766.799136503
 30
0.0
 40
0.1
  1
122
 72
     1
 11
8412541.089738283
 21
5786766.849136503
 31
0.0
100
AcDbText
 73
     2
  0
TEXT
  5
45C
330
1F
100
AcDbEntity
  8
0
  6
ByBlock
100
AcDbText
 10
8412543.479571215
 20
5786766.10815188
 30
0.0
 40
0.1
  1
123
 72
     1
 11
8412543.596237883
 21
5786766.15815188
 31
0.0
100
AcDbText
 73
     2
  0
TEXT
  5
45D
330
1F
100
AcDbEntity
  8
0
  6
ByBlock
100
AcDbText
 10
8412543.639029209
 20
5786766.686574866
 30
0.0
 40
0.1
  1
124
 72
     1
 11
8412543.755695876
 21
5786766.736574866
 31
0.0
100
AcDbText
 73
     2
  0
TEXT
  5
45E
330
1F
100
AcDbEntity
  8
0
  6
ByBlock
100
AcDbText
 10
8412544.372324907
 20
5786767.672134208
 30
0.0
 40
0.1
  1
125
 72
     1
 11
8412544.488991574
 21
5786767.722134207
 31
0.0
100
AcDbText
 73
     2
  0
TEXT
  5
45F
330
1F
100
AcDbEntity
  8
0
  6
ByBlock
100
AcDbText
 10
8412544.950747893
 20
5786767.512676219
 30
0.0
 40
0.1
  1
126
 72
     1
 11
8412545.06741456
 21
5786767.562676218
 31
0.0
100
AcDbText
 73
     2
  0
TEXT
  5
460
330
1F
100
AcDbEntity
  8
0
  6
ByBlock
100
AcDbText
 10
8412545.302496516
 20
5786771.046268288
 30
0.0
 40
0.1
  1
127
 72
     1
 11
8412545.419163183
 21
5786771.096268288
 31
0.0
100
AcDbText
 73
     2
  0
TEXT
  5
461
330
1F
100
AcDbEntity
  8
0
  6
ByBlock
100
AcDbText
 10
8412545.880919502
 20
5786770.886810298
 30
0.0
 40
0.1
  1
128
 72
     1
 11
8412545.997586169
 21
5786770.936810298
 31
0.0
100
AcDbText
 73
     2
  0
TEXT
  5
462
330
1F
100
AcDbEntity
  8
0
  6
ByBlock
100
AcDbText
 10
8412545.17779881
 20
5786772.268356664
 30
0.0
 40
0.1
  1
129
 72
     1
 11
8412545.294465477
 21
5786772.318356664
 31
0.0
100
AcDbText
 73
     2
  0
TEXT
  5
463
330
1F
100
AcDbEntity
  8
0
  6
ByBlock
100
AcDbText
 10
8412545.345590135
 20
5786772.846779649
 30
0.0
 40
0.1
  1
130
 72
     1
 11
8412545.453923467
 21
5786772.896779649
 31
0.0
100
AcDbText
 73
     2
  0
TEXT
  5
464
330
1F
100
AcDbEntity
  8
0
  6
ByBlock
100
AcDbText
 10
8412542.847423864
 20
5786773.537764272
 30
0.0
 40
0.1
  1
131
 72
     1
 11
8412542.947423865
 21
5786773.587764272
 31
0.0
100
AcDbText
 73
     2
  0
TEXT
  5
465
330
1F
100
AcDbEntity
  8
0
  6
ByBlock
100
AcDbText
 10
8412542.67129921
 20
5786772.959341288
 30
0.0
 40
0.1
  1
132
 72
     1
 11
8412542.787965877
 21
5786773.009341287
 31
0.0
100
AcDbText
 73
     2
  0
TEXT
  5
466
330
1F
100
AcDbEntity
  8
0
  6
ByBlock
100
AcDbText
 10
8412540.160683901
 20
5786774.387945773
 30
0.0
 40
0.1
  1
133
 72
     1
 11
8412540.277350569
 21
5786774.437945773
 31
0.0
100
AcDbText
 73
     2
  0
TEXT
  5
467
330
1F
100
AcDbEntity
  8
0
  6
ByBlock
100
AcDbText
 10
8412540.001225911
 20
5786773.809522787
 30
0.0
 40
0.1
  1
134
 72
     1
 11
8412540.117892579
 21
5786773.859522788
 31
0.0
100
AcDbText
 73
     2
  0
TEXT
  5
468
330
1F
100
AcDbEntity
  8
0
  6
ByBlock
100
AcDbText
 10
8412537.943395793
 20
5786774.999201401
 30
0.0
 40
0.1
  1
135
 72
     1
 11
8412538.060062461
 21
5786775.049201401
 31
0.0
100
AcDbText
 73
     2
  0
TEXT
  5
469
330
1F
100
AcDbEntity
  8
0
  6
ByBlock
100
AcDbText
 10
8412537.783937805
 20
5786774.420778418
 30
0.0
 40
0.1
  1
136
 72
     1
 11
8412537.900604471
 21
5786774.470778418
 31
0.0
100
AcDbText
 73
     2
  0
TEXT
  5
46A
330
1F
100
AcDbEntity
  8
0
  6
ByBlock
100
AcDbText
 10
8412538.02312479
 20
5786775.288412894
 30
0.0
 40
0.1
  1
137
 72
     1
 11
8412538.139791458
 21
5786775.338412894
 31
0.0
100
AcDbText
 73
     2
  0
TEXT
  5
46B
330
1F
100
AcDbEntity
  8
0
  6
ByBlock
100
AcDbText
 10
8412535.70943285
 20
5786775.926244854
 30
0.0
 40
0.1
  1
138
 72
     1
 11
8412535.826099517
 21
5786775.976244854
 31
0.0
100
AcDbText
 73
     2
  0
TEXT
  5
46C
330
1F
100
AcDbEntity
  8
0
  6
ByBlock
100
AcDbText
 10
8412535.390516866
 20
5786774.769398885
 30
0.0
 40
0.1
  1
139
 72
     1
 11
8412535.507183534
 21
5786774.819398885
 31
0.0
100
AcDbText
 73
     2
  0
TEXT
  5
46D
330
1F
100
AcDbEntity
  8
0
  6
ByBlock
100
AcDbText
 10
8412536.555696174
 20
5786774.450482905
 30
0.0
 40
0.1
  1
140
 72
     1
 11
8412536.664029508
 21
5786774.500482905
 31
0.0
100
AcDbText
 73
     2
  0
TEXT
  5
46E
330
1F
100
AcDbEntity
  8
0
  6
ByBlock
100
AcDbText
 10
8412535.155483928
 20
5786769.341079876
 30
0.0
 40
0.1
  1
141
 72
     1
 11
8412535.255483927
 21
5786769.391079876
 31
0.0
100
AcDbText
 73
     2
  0
TEXT
  5
46F
330
1F
100
AcDbEntity
  8
0
  6
ByBlock
100
AcDbText
 10
8412533.981971291
 20
5786769.659995858
 30
0.0
 40
0.1
  1
142
 72
     1
 11
8412534.098637959
 21
5786769.709995858
 31
0.0
100
AcDbText
 73
     2
  0
TEXT
  5
470
330
1F
100
AcDbEntity
  8
0
  6
ByBlock
100
AcDbText
 10
8412533.66305531
 20
5786768.503149886
 30
0.0
 40
0.1
  1
143
 72
     1
 11
8412533.779721977
 21
5786768.553149886
 31
0.0
100
AcDbText
 73
     2
  0
TEXT
  5
471
330
1F
100
AcDbEntity
  8
0
  6
ByBlock
100
AcDbText
 10
8412535.97674725
 20
5786767.865317926
 30
0.0
 40
0.1
  1
144
 72
     1
 11
8412536.093413917
 21
5786767.915317926
 31
0.0
100
AcDbText
 73
     2
  0
TEXT
  5
472
330
1F
100
AcDbEntity
  8
0
  6
ByBlock
100
AcDbText
 10
8412542.345968288
 20
5786751.084119597
 30
0.0
 40
0.1
  1
145
 72
     1
 11
8412542.462634954
 21
5786751.134119596
 31
0.0
100
AcDbText
 73
     2
  0
TEXT
  5
473
330
1F
100
AcDbEntity
  8
0
  6
ByBlock
100
AcDbText
 10
8412542.466473096
 20
5786751.050899177
 30
0.0
 40
0.1
  1
146
 72
     1
 11
8412542.583139764
 21
5786751.100899176
 31
0.0
100
AcDbText
 73
     2
  0
TEXT
  5
474
330
1F
100
AcDbEntity
  8
0
  6
ByBlock
100
AcDbText
 10
8412539.434050508
 20
5786751.057026732
 30
0.0
 40
0.1
  1
147
 72
     1
 11
8412539.550717175
 21
5786751.107026732
 31
0.0
100
AcDbText
 73
     2
  0
TEXT
  5
475
330
1F
100
AcDbEntity
  8
0
  6
ByBlock
100
AcDbText
 10
8412539.593508494
 20
5786751.635449718
 30
0.0
 40
0.1
  1
148
 72
     1
 11
8412539.710175163
 21
5786751.685449718
 31
0.0
100
AcDbText
 73
     2
  0
TEXT
  5
476
330
1F
100
AcDbEntity
  8
0
  6
ByBlock
100
AcDbText
 10
8412536.990605065
 20
5786752.353010674
 30
0.0
 40
0.1
  1
149
 72
     1
 11
8412537.107271733
 21
5786752.403010674
 31
0.0
100
AcDbText
 73
     2
  0
TEXT
  5
477
330
1F
100
AcDbEntity
  8
0
  6
ByBlock
100
AcDbText
 10
8412536.839480409
 20
5786751.774587688
 30
0.0
 40
0.1
  1
150
 72
     1
 11
8412536.947813741
 21
5786751.824587688
 31
0.0
100
AcDbText
 73
     2
  0
TEXT
  5
478
330
1F
100
AcDbEntity
  8
0
  6
ByBlock
100
AcDbText
 10
8412546.951161001
 20
5786778.64064988
 30
0.0
 40
0.1
  1
151
 72
     1
 11
8412547.051161
 21
5786778.69064988
 31
0.0
100
AcDbText
 73
     2
  0
TEXT
  5
479
330
1F
100
AcDbEntity
  8
0
  6
ByBlock
100
AcDbText
 10
8412547.093952326
 20
5786779.219072866
 30
0.0
 40
0.1
  1
152
 72
     1
 11
8412547.210618992
 21
5786779.269072866
 31
0.0
100
AcDbText
 73
     2
  0
TEXT
  5
47A
330
1F
100
AcDbEntity
  8
0
  6
ByBlock
100
AcDbText
 10
8412544.587452725
 20
5786779.91005749
 30
0.0
 40
0.1
  1
153
 72
     1
 11
8412544.704119392
 21
5786779.96005749
 31
0.0
100
AcDbText
 73
     2
  0
TEXT
  5
47B
330
1F
100
AcDbEntity
  8
0
  6
ByBlock
100
AcDbText
 10
8412544.427994731
 20
5786779.331634503
 30
0.0
 40
0.1
  1
154
 72
     1
 11
8412544.544661399
 21
5786779.381634503
 31
0.0
100
AcDbText
 73
     2
  0
TEXT
  5
47C
330
1F
100
AcDbEntity
  8
0
  6
ByBlock
100
AcDbText
 10
8412548.758359724
 20
5786784.880322555
 30
0.0
 40
0.1
  1
155
 72
     1
 11
8412548.875026391
 21
5786784.930322554
 31
0.0
100
AcDbText
 73
     2
  0
TEXT
  5
47D
330
1F
100
AcDbEntity
  8
0
  6
ByBlock
100
AcDbText
 10
8412549.183581031
 20
5786786.422783846
 30
0.0
 40
0.1
  1
156
 72
     1
 11
8412549.300247698
 21
5786786.472783846
 31
0.0
100
AcDbText
 73
     2
  0
TEXT
  5
47E
330
1F
100
AcDbEntity
  8
0
  6
ByBlock
100
AcDbText
 10
8412530.428215516
 20
5786791.59320924
 30
0.0
 40
0.1
  1
157
 72
     1
 11
8412530.544882184
 21
5786791.64320924
 31
0.0
100
AcDbText
 73
     2
  0
TEXT
  5
47F
330
1F
100
AcDbEntity
  8
0
  6
ByBlock
100
AcDbText
 10
8412531.5454555
 20
5786789.625526641
 30
0.0
 40
0.1
  1
158
 72
     1
 11
8412531.662122168
 21
5786789.675526641
 31
0.0
100
AcDbText
 73
     2
  0
TEXT
  5
480
330
1F
100
AcDbEntity
  8
0
  6
ByBlock
100
AcDbText
 10
8412527.451371628
 20
5786774.774516597
 30
0.0
 40
0.1
  1
159
 72
     1
 11
8412527.568038296
 21
5786774.824516597
 31
0.0
100
AcDbText
 73
     2
  0
TEXT
  5
481
330
1F
100
AcDbEntity
  8
0
  6
ByBlock
100
AcDbText
 10
8412525.22625904
 20
5786772.693238272
 30
0.0
 40
0.1
  1
160
 72
     1
 11
8412525.334592372
 21
5786772.743238271
 31
0.0
100
AcDbText
 73
     2
  0
TEXT
  5
486
330
1F
100
AcDbEntity
  8
0
100
AcDbText
 10
8412551.899554962
 20
5786785.678646561
 30
0.0
 40
0.1
  1
161
 72
     1
 11
8412551.999554962
 21
5786785.72864656
 31
0.0
100
AcDbText
 73
     2
  0
TEXT
  5
487
330
1F
100
AcDbEntity
  8
0
100
AcDbText
 10
8412552.581816036
 20
5786785.485968164
 30
0.0
 40
0.1
  1
162
 72
     1
 11
8412552.698482704
 21
5786785.535968164
 31
0.0
100
AcDbText
 73
     2
  0
TEXT
  5
488
330
1F
100
AcDbEntity
  8
0
100
AcDbText
 10
8412551.44163416
 20
5786784.136185268
 30
0.0
 40
0.1
  1
163
 72
     1
 11
8412551.558300826
 21
5786784.186185268
 31
0.0
100
AcDbText
 73
     2
  0
TEXT
  5
489
330
1F
100
AcDbEntity
  8
0
100
AcDbText
 10
8412551.578171751
 20
5786784.10296486
 30
0.0
 40
0.1
  1
164
 72
     1
 11
8412551.694838418
 21
5786784.15296486
 31
0.0
100
AcDbText
 73
     2
  0
TEXT
  5
48A
330
1F
100
AcDbEntity
  8
0
100
AcDbText
 10
8412542.832285568
 20
5786750.120211033
 30
0.0
 40
0.1
  1
165
 72
     1
 11
8412542.948952236
 21
5786750.170211034
 31
0.0
100
AcDbText
 73
     2
  0
TEXT
  5
48B
330
1F
100
AcDbEntity
  8
0
100
AcDbText
 10
8412542.133357771
 20
5786750.312889446
 30
0.0
 40
0.1
  1
166
 72
     1
 11
8412542.250024438
 21
5786750.362889446
 31
0.0
100
AcDbText
 73
     2
  0
TEXT
  5
48C
330
1F
100
AcDbEntity
  8
0
100
AcDbText
 10
8412535.510885851
 20
5786770.690733312
 30
0.0
 40
0.1
  1
167
 72
     1
 11
8412535.627552516
 21
5786770.740733311
 31
0.0
100
AcDbText
 73
     2
  0
TEXT
  5
48D
330
1F
100
AcDbEntity
  8
0
100
AcDbText
 10
8412534.387781196
 20
5786771.000347579
 30
0.0
 40
0.1
  1
168
 72
     1
 11
8412534.504447862
 21
5786771.050347579
 31
0.0
100
AcDbText
 73
     2
  0
TEXT
  5
48E
330
1F
100
AcDbEntity
  8
0
100
AcDbText
 10
8412534.281475869
 20
5786770.614732255
 30
0.0
 40
0.1
  1
169
 72
     1
 11
8412534.398142536
 21
5786770.664732255
 31
0.0
100
AcDbText
 73
     2
  0
TEXT
  5
48F
330
1F
100
AcDbEntity
  8
0
100
AcDbText
 10
8412535.412913857
 20
5786770.305117985
 30
0.0
 40
0.1
  1
170
 72
     1
 11
8412535.521247189
 21
5786770.355117985
 31
0.0
100
AcDbText
 73
     2
  0
TEXT
  5
490
330
1F
100
AcDbEntity
  8
0
100
AcDbText
 10
8412533.372378875
 20
5786770.605432097
 30
0.0
 40
0.1
  1
171
 72
     1
 11
8412533.472378875
 21
5786770.655432097
 31
0.0
100
AcDbText
 73
     2
  0
TEXT
  5
491
330
1F
100
AcDbEntity
  8
0
100
AcDbText
 10
8412532.198866237
 20
5786770.924348078
 30
0.0
 40
0.1
  1
172
 72
     1
 11
8412532.315532905
 21
5786770.974348078
 31
0.0
100
AcDbText
 73
     2
  0
TEXT
  5
492
330
1F
100
AcDbEntity
  8
0
100
AcDbText
 10
8412534.339036477
 20
5786774.172373835
 30
0.0
 40
0.1
  1
173
 72
     1
 11
8412534.455703145
 21
5786774.222373835
 31
0.0
100
AcDbText
 73
     2
  0
TEXT
  5
493
330
1F
100
AcDbEntity
  8
0
100
AcDbText
 10
8412533.182190507
 20
5786774.491289816
 30
0.0
 40
0.1
  1
174
 72
     1
 11
8412533.298857175
 21
5786774.541289815
 31
0.0
100
AcDbText
 73
     2
  0
ENDSEC
  0
SECTION
  2
OBJECTS
  0
DICTIONARY
  5
C
330
0
100
AcDbDictionary
281
     1
  3
ACAD_COLOR
350
6B
  3
ACAD_GROUP
350
D
  3
ACAD_LAYOUT
350
1A
  3
ACAD_MATERIAL
350
6A
  3
ACAD_MLINESTYLE
350
17
  3
ACAD_PLOTSETTINGS
350
19
  3
ACAD_PLOTSTYLENAME
350
E
  3
ACAD_TABLESTYLE
350
7E
  3
ACAD_VISUALSTYLE
350
EF
  3
AcDbVariableDictionary
350
5E
  3
AEC_CLASSIFICATION_SYSTEM_DEFS
350
2D4
  3
AEC_PROPERTY_SET_DEFS
350
2D5
  0
DICTIONARY
  5
122
330
2
100
AcDbDictionary
280
     1
281
     1
  3
ACAD_LAYERSTATES
360
123
  0
DICTIONARY
  5
118
330
117
100
AcDbDictionary
280
     1
281
     1
  3
ADSK_XREC_LAYER_RECONCILED
360
119
  0
DICTIONARY
  5
11B
330
11A
100
AcDbDictionary
280
     1
281
     1
  3
ADSK_XREC_LAYER_RECONCILED
360
11C
  0
DICTIONARY
  5
6B
102
{ACAD_REACTORS
330
C
102
}
330
C
100
AcDbDictionary
281
     1
  0
DICTIONARY
  5
D
102
{ACAD_REACTORS
330
C
102
}
330
C
100
AcDbDictionary
281
     1
  0
DICTIONARY
  5
1A
102
{ACAD_REACTORS
330
C
102
}
330
C
100
AcDbDictionary
281
     1
  3
Layout1
350
D3
  3
Layout2
350
D7
  3
Model
350
22
  0
DICTIONARY
  5
6A
102
{ACAD_REACTORS
330
C
102
}
330
C
100
AcDbDictionary
281
     1
  3
ByBlock
350
ED
  3
ByLayer
350
EC
  3
Global
350
EE
  0
DICTIONARY
  5
17
102
{ACAD_REACTORS
330
C
102
}
330
C
100
AcDbDictionary
281
     1
  3
Standard
350
18
  0
DICTIONARY
  5
19
102
{ACAD_REACTORS
330
C
102
}
330
C
100
AcDbDictionary
281
     1
  0
ACDBDICTIONARYWDFLT
  5
E
102
{ACAD_REACTORS
330
C
102
}
330
C
100
AcDbDictionary
281
     1
  3
Normal
350
F
100
AcDbDictionaryWithDefault
340
F
  0
DICTIONARY
  5
7E
102
{ACAD_REACTORS
330
C
102
}
330
C
100
AcDbDictionary
281
     1
  3
Standard
350
7F
  0
DICTIONARY
  5
EF
102
{ACAD_REACTORS
330
C
102
}
330
C
100
AcDbDictionary
281
     1
  3
2dWireframe
350
F5
  3
3D Hidden
350
F7
  3
3dWireframe
350
F6
  3
Basic
350
F4
  3
Brighten
350
FB
  3
ColorChange
350
FF
  3
Conceptual
350
F8
  3
Dim
350
FA
  3
Facepattern
350
FE
  3
Flat
350
F0
  3
FlatWithEdges
350
F1
  3
Gouraud
350
F2
  3
GouraudWithEdges
350
F3
  3
Linepattern
350
FD
  3
Realistic
350
F9
  3
Thicken
350
FC
  0
DICTIONARY
  5
5E
102
{ACAD_REACTORS
330
C
102
}
330
C
100
AcDbDictionary
281
     1
  3
CTABLESTYLE
350
84
  3
DIMASSOC
350
5F
  3
HIDETEXT
350
63
  0
DICTIONARY
  5
2D4
102
{ACAD_REACTORS
330
C
102
}
330
C
100
AcDbDictionary
281
     1
  0
DICTIONARY
  5
2D5
102
{ACAD_REACTORS
330
C
102
}
330
C
100
AcDbDictionary
281
     1
  0
DICTIONARY
  5
123
102
{ACAD_REACTORS
330
122
102
}
330
122
100
AcDbDictionary
281
     1
  0
XRECORD
  5
119
102
{ACAD_REACTORS
330
118
102
}
330
118
100
AcDbXrecord
280
     1
290
     1
  0
XRECORD
  5
11C
102
{ACAD_REACTORS
330
11B
102
}
330
11B
100
AcDbXrecord
280
     1
290
     1
  0
LAYOUT
  5
D3
102
{ACAD_REACTORS
330
1A
102
}
330
1A
100
AcDbPlotSettings
  1

  2
C:\Documents and Settings\basas\Application Data\Autodesk\AutoCAD 2005\R16.1\enu\plotters\Default Windows System Printer.pc3
  4

  6

 40
0.0
 41
0.0
 42
0.0
 43
0.0
 44
0.0
 45
0.0
 46
0.0
 47
0.0
 48
0.0
 49
0.0
140
0.0
141
0.0
142
1.0
143
1.0
 70
   688
 72
     0
 73
     0
 74
     5
  7

 75
    16
147
1.0
 76
     0
 77
     2
 78
   300
148
0.0
149
0.0
100
AcDbLayout
  1
Layout1
 70
     1
 71
     1
 10
0.0
 20
0.0
 11
12.0
 21
9.0
 12
0.0
 22
0.0
 32
0.0
 14
0.0
 24
0.0
 34
0.0
 15
0.0
 25
0.0
 35
0.0
146
0.0
 13
0.0
 23
0.0
 33
0.0
 16
1.0
 26
0.0
 36
0.0
 17
0.0
 27
1.0
 37
0.0
 76
     0
330
D2
  0
LAYOUT
  5
D7
102
{ACAD_REACTORS
330
1A
102
}
330
1A
100
AcDbPlotSettings
  1

  2
C:\Documents and Settings\basas\Application Data\Autodesk\AutoCAD 2005\R16.1\enu\plotters\Default Windows System Printer.pc3
  4

  6

 40
0.0
 41
0.0
 42
0.0
 43
0.0
 44
0.0
 45
0.0
 46
0.0
 47
0.0
 48
0.0
 49
0.0
140
0.0
141
0.0
142
1.0
143
1.0
 70
   688
 72
     0
 73
     0
 74
     5
  7

 75
    16
147
1.0
 76
     0
 77
     2
 78
   300
148
0.0
149
0.0
100
AcDbLayout
  1
Layout2
 70
     1
 71
     2
 10
0.0
 20
0.0
 11
12.0
 21
9.0
 12
0.0
 22
0.0
 32
0.0
 14
0.0
 24
0.0
 34
0.0
 15
0.0
 25
0.0
 35
0.0
146
0.0
 13
0.0
 23
0.0
 33
0.0
 16
1.0
 26
0.0
 36
0.0
 17
0.0
 27
1.0
 37
0.0
 76
     0
330
D6
  0
LAYOUT
  5
22
102
{ACAD_REACTORS
330
1A
102
}
330
1A
100
AcDbPlotSettings
  1

  2
none_device
  4
ISO_A4_(210.00_x_297.00_MM)
  6

 40
7.5
 41
20.0
 42
7.5
 43
20.0
 44
210.0
 45
297.0
 46
11.54999923706054
 47
-13.65000009536743
 48
0.0
 49
0.0
140
0.0
141
0.0
142
1.0
143
8.704084754739808
 70
 11952
 72
     1
 73
     0
 74
     0
  7

 75
     0
147
0.1148885871608098
 76
     0
 77
     2
 78
   300
148
0.0
149
0.0
100
AcDbLayout
  1
Model
 70
     1
 71
     0
 10
0.0
 20
0.0
 11
12.0
 21
9.0
 12
0.0
 22
0.0
 32
0.0
 14
0.0
 24
0.0
 34
0.0
 15
0.0
 25
0.0
 35
0.0
146
0.0
 13
0.0
 23
0.0
 33
0.0
 16
1.0
 26
0.0
 36
0.0
 17
0.0
 27
1.0
 37
0.0
 76
     0
330
1F
331
EA
1001
ACAD_PSEXT
1000
None
1000
None
1000
Not applicable
1000
The layout will not be plotted unless a new plotter configuration name is selected.
1070
     0
  0
MATERIAL
  5
ED
102
{ACAD_REACTORS
330
6A
102
}
330
6A
100
AcDbMaterial
  1
ByBlock
  0
MATERIAL
  5
EC
102
{ACAD_REACTORS
330
6A
102
}
330
6A
100
AcDbMaterial
  1
ByLayer
  0
MATERIAL
  5
EE
102
{ACAD_REACTORS
330
6A
102
}
330
6A
100
AcDbMaterial
  1
Global
  0
MLINESTYLE
  5
18
102
{ACAD_REACTORS
330
17
102
}
330
17
100
AcDbMlineStyle
  2
STANDARD
 70
     0
  3

 62
   256
 51
90.0
 52
90.0
 71
     2
 49
0.5
 62
   256
  6
BYLAYER
 49
-0.5
 62
   256
  6
BYLAYER
  0
ACDBPLACEHOLDER
  5
F
102
{ACAD_REACTORS
330
E
102
}
330
E
  0
TABLESTYLE
  5
7F
102
{ACAD_REACTORS
330
7E
102
}
330
7E
100
AcDbTableStyle
  3
Standard
 70
     0
 71
     0
 40
1.5
 41
1.5
280
     0
281
     0
  7
Standard
140
4.5
170
     2
 62
     0
 63
     7
283
     0
 90
      512
 91
        0
  1

274
    -2
284
     1
 64
     0
275
    -2
285
     1
 65
     0
276
    -2
286
     1
 66
     0
277
    -2
287
     1
 67
     0
278
    -2
288
     1
 68
     0
279
    -2
289
     1
 69
     0
  7
Standard
140
6.0
170
     5
 62
     0
 63
     7
283
     0
 90
      512
 91
        0
  1

274
    -2
284
     1
 64
     0
275
    -2
285
     1
 65
     0
276
    -2
286
     1
 66
     0
277
    -2
287
     1
 67
     0
278
    -2
288
     1
 68
     0
279
    -2
289
     1
 69
     0
  7
Standard
140
4.5
170
     5
 62
     0
 63
     7
283
     0
 90
      512
 91
        0
  1

274
    -2
284
     1
 64
     0
275
    -2
285
     1
 65
     0
276
    -2
286
     1
 66
     0
277
    -2
287
     1
 67
     0
278
    -2
288
     1
 68
     0
279
    -2
289
     1
 69
     0
  0
VISUALSTYLE
  5
F5
102
{ACAD_REACTORS
330
EF
102
}
330
EF
100
AcDbVisualStyle
  2
2dWireframe
 70
     4
 71
     0
 72
     2
 73
     1
 90
        0
 40
-0.6
 41
-30.0
 62
     5
 63
     7
421
 16777215
 74
     1
 91
        4
 64
     7
 65
   257
 75
     1
175
     1
 42
1.0
 92
        0
 66
   257
 43
1.0
 76
     1
 77
     6
 78
     2
 67
     7
 79
     5
170
     0
171
     0
290
     0
174
     0
 93
        1
 44
0.0
173
     0
291
     0
 45
0.0
  0
VISUALSTYLE
  5
F7
102
{ACAD_REACTORS
330
EF
102
}
330
EF
100
AcDbVisualStyle
  2
3D Hidden
 70
     6
 71
     1
 72
     2
 73
     2
 90
        0
 40
-0.6
 41
-30.0
 62
     5
 63
     7
421
 16777215
 74
     2
 91
        2
 64
     7
 65
   257
 75
     2
175
     1
 42
40.0
 92
        0
 66
   257
 43
1.0
 76
     1
 77
     6
 78
     2
 67
     7
 79
     3
170
     0
171
     0
290
     0
174
     0
 93
        1
 44
0.0
173
     0
291
     0
 45
0.0
  0
VISUALSTYLE
  5
F6
102
{ACAD_REACTORS
330
EF
102
}
330
EF
100
AcDbVisualStyle
  2
3dWireframe
 70
     5
 71
     0
 72
     2
 73
     1
 90
        0
 40
-0.6
 41
-30.0
 62
     5
 63
     7
421
 16777215
 74
     1
 91
        4
 64
     7
 65
   257
 75
     1
175
     1
 42
1.0
 92
        0
 66
   257
 43
1.0
 76
     1
 77
     6
 78
     2
 67
     7
 79
     5
170
     0
171
     0
290
     0
174
     0
 93
        1
 44
0.0
173
     0
291
     0
 45
0.0
  0
VISUALSTYLE
  5
F4
102
{ACAD_REACTORS
330
EF
102
}
330
EF
100
AcDbVisualStyle
  2
Basic
 70
     7
 71
     1
 72
     0
 73
     1
 90
        0
 40
-0.6
 41
-30.0
 62
     5
 63
     7
421
 16777215
 74
     0
 91
        4
 64
     7
 65
   257
 75
     1
175
     1
 42
1.0
 92
        8
 66
     7
 43
1.0
 76
     1
 77
     6
 78
     2
 67
     7
 79
     5
170
     0
171
     0
290
     0
174
     0
 93
        1
 44
0.0
173
     0
291
     1
 45
0.0
  0
VISUALSTYLE
  5
FB
102
{ACAD_REACTORS
330
EF
102
}
330
EF
100
AcDbVisualStyle
  2
Brighten
 70
    12
 71
     2
 72
     2
 73
     1
 90
        0
 40
-0.6
 41
-30.0
 62
     5
 63
     7
421
 16777215
 74
     1
 91
        4
 64
     7
 65
   257
 75
     1
175
     1
 42
1.0
 92
        8
 66
     7
 43
1.0
 76
     1
 77
     6
 78
     2
 67
     7
 79
     5
170
     0
171
     0
290
     0
174
     0
 93
        1
 44
50.0
173
     0
291
     1
 45
0.0
  0
VISUALSTYLE
  5
FF
102
{ACAD_REACTORS
330
EF
102
}
330
EF
100
AcDbVisualStyle
  2
ColorChange
 70
    16
 71
     2
 72
     2
 73
     3
 90
        0
 40
-0.6
 41
-30.0
 62
     5
 63
     8
421
  8421504
 74
     1
 91
        4
 64
     7
 65
   257
 75
     1
175
     1
 42
1.0
 92
        8
 66
     8
424
  8421504
 43
1.0
 76
     1
 77
     6
 78
     2
 67
     7
 79
     5
170
     0
171
     0
290
     0
174
     0
 93
        1
 44
0.0
173
     0
291
     1
 45
0.0
  0
VISUALSTYLE
  5
F8
102
{ACAD_REACTORS
330
EF
102
}
330
EF
100
AcDbVisualStyle
  2
Conceptual
 70
     9
 71
     3
 72
     2
 73
     1
 90
        0
 40
-0.6
 41
-30.0
 62
     5
 63
     7
421
 16777215
 74
     2
 91
        2
 64
     7
 65
   257
 75
     1
175
     1
 42
40.0
 92
        8
 66
     7
 43
1.0
 76
     1
 77
     6
 78
     2
 67
     7
 79
     3
170
     0
171
     0
290
     0
174
     0
 93
        1
 44
0.0
173
     0
291
     0
 45
0.0
  0
VISUALSTYLE
  5
FA
102
{ACAD_REACTORS
330
EF
102
}
330
EF
100
AcDbVisualStyle
  2
Dim
 70
    11
 71
     2
 72
     2
 73
     1
 90
        0
 40
-0.6
 41
-30.0
 62
     5
 63
     7
421
 16777215
 74
     1
 91
        4
 64
     7
 65
   257
 75
     1
175
     1
 42
1.0
 92
        8
 66
     7
 43
1.0
 76
     1
 77
     6
 78
     2
 67
     7
 79
     5
170
     0
171
     0
290
     0
174
     0
 93
        1
 44
-50.0
173
     0
291
     1
 45
0.0
  0
VISUALSTYLE
  5
FE
102
{ACAD_REACTORS
330
EF
102
}
330
EF
100
AcDbVisualStyle
  2
Facepattern
 70
    15
 71
     2
 72
     2
 73
     1
 90
        0
 40
-0.6
 41
-30.0
 62
     5
 63
     7
421
 16777215
 74
     1
 91
        4
 64
     7
 65
   257
 75
     1
175
     1
 42
1.0
 92
        8
 66
     7
 43
1.0
 76
     1
 77
     6
 78
     2
 67
     7
 79
     5
170
     0
171
     0
290
     0
174
     0
 93
        1
 44
0.0
173
     0
291
     1
 45
0.0
  0
VISUALSTYLE
  5
F0
102
{ACAD_REACTORS
330
EF
102
}
330
EF
100
AcDbVisualStyle
  2
Flat
 70
     0
 71
     2
 72
     1
 73
     1
 90
        2
 40
-0.6
 41
30.0
 62
     5
 63
     7
421
 16777215
 74
     0
 91
        4
 64
     7
 65
   257
 75
     1
175
     1
 42
1.0
 92
        8
 66
     7
 43
1.0
 76
     1
 77
     6
 78
     2
 67
     7
 79
     5
170
     0
171
     0
290
     0
174
     0
 93
        1
 44
0.0
173
     0
291
     1
 45
0.0
  0
VISUALSTYLE
  5
F1
102
{ACAD_REACTORS
330
EF
102
}
330
EF
100
AcDbVisualStyle
  2
FlatWithEdges
 70
     1
 71
     2
 72
     1
 73
     1
 90
        2
 40
-0.6
 41
30.0
 62
     5
 63
     7
421
 16777215
 74
     1
 91
        4
 64
     7
 65
   257
 75
     1
175
     1
 42
1.0
 92
        0
 66
   257
 43
1.0
 76
     1
 77
     6
 78
     2
 67
     7
 79
     5
170
     0
171
     0
290
     0
174
     0
 93
        1
 44
0.0
173
     0
291
     1
 45
0.0
  0
VISUALSTYLE
  5
F2
102
{ACAD_REACTORS
330
EF
102
}
330
EF
100
AcDbVisualStyle
  2
Gouraud
 70
     2
 71
     2
 72
     2
 73
     1
 90
        2
 40
-0.6
 41
30.0
 62
     5
 63
     7
421
 16777215
 74
     0
 91
        4
 64
     7
 65
   257
 75
     1
175
     1
 42
1.0
 92
        0
 66
     7
 43
1.0
 76
     1
 77
     6
 78
     2
 67
     7
 79
     5
170
     0
171
     0
290
     0
174
     0
 93
        1
 44
0.0
173
     0
291
     1
 45
0.0
  0
VISUALSTYLE
  5
F3
102
{ACAD_REACTORS
330
EF
102
}
330
EF
100
AcDbVisualStyle
  2
GouraudWithEdges
 70
     3
 71
     2
 72
     2
 73
     1
 90
        2
 40
-0.6
 41
30.0
 62
     5
 63
     7
421
 16777215
 74
     1
 91
        4
 64
     7
 65
   257
 75
     1
175
     1
 42
1.0
 92
        0
 66
   257
 43
1.0
 76
     1
 77
     6
 78
     2
 67
     7
 79
     5
170
     0
171
     0
290
     0
174
     0
 93
        1
 44
0.0
173
     0
291
     1
 45
0.0
  0
VISUALSTYLE
  5
FD
102
{ACAD_REACTORS
330
EF
102
}
330
EF
100
AcDbVisualStyle
  2
Linepattern
 70
    14
 71
     2
 72
     2
 73
     1
 90
        0
 40
-0.6
 41
-30.0
 62
     5
 63
     7
421
 16777215
 74
     1
 91
        4
 64
     7
 65
   257
 75
     7
175
     7
 42
1.0
 92
        8
 66
     7
 43
1.0
 76
     1
 77
     6
 78
     2
 67
     7
 79
     5
170
     0
171
     0
290
     0
174
     0
 93
        1
 44
0.0
173
     0
291
     1
 45
0.0
  0
VISUALSTYLE
  5
F9
102
{ACAD_REACTORS
330
EF
102
}
330
EF
100
AcDbVisualStyle
  2
Realistic
 70
     8
 71
     2
 72
     2
 73
     1
 90
        0
 40
-0.6
 41
-30.0
 62
     5
 63
     7
421
 16777215
 74
     1
 91
        0
 64
     7
 65
   257
 75
     1
175
     1
 42
1.0
 92
        8
 66
     8
424
  7895160
 43
1.0
 76
     1
 77
     6
 78
     2
 67
     7
 79
     5
170
     0
171
     0
290
     0
174
     0
 93
       13
 44
0.0
173
     0
291
     0
 45
0.0
  0
VISUALSTYLE
  5
FC
102
{ACAD_REACTORS
330
EF
102
}
330
EF
100
AcDbVisualStyle
  2
Thicken
 70
    13
 71
     2
 72
     2
 73
     1
 90
        0
 40
-0.6
 41
-30.0
 62
     5
 63
     7
421
 16777215
 74
     1
 91
        4
 64
     7
 65
   257
 75
     1
175
     1
 42
1.0
 92
       12
 66
     7
 43
1.0
 76
     1
 77
     6
 78
     2
 67
     7
 79
     5
170
     0
171
     0
290
     0
174
     0
 93
        1
 44
0.0
173
     0
291
     1
 45
0.0
  0
DICTIONARYVAR
  5
84
102
{ACAD_REACTORS
330
5E
102
}
330
5E
100
DictionaryVariables
280
     0
  1
STANDARD
  0
DICTIONARYVAR
  5
5F
102
{ACAD_REACTORS
330
5E
102
}
330
5E
100
DictionaryVariables
280
     0
  1
2
  0
DICTIONARYVAR
  5
63
102
{ACAD_REACTORS
330
5E
102
}
330
5E
100
DictionaryVariables
280
     0
  1
1
  0
ENDSEC
  0
EOF
